Concert For Aliens Intro Riff & Solo (Machine Gun Kelly)

Chords

01234567891011121314151617181920212223
E
B
G
D
A
E
B
0 1 2 3 4 5 6 7 8 9 10 11 12 13 14 15 16 17 18 19 20 21 22 23
(/) Slide Up  (\) Slide Down  (h) Hammer On  (p) Pull Off  (b) Bend (r) Release (v) Vibrato

Stave 1:

E|--x-----x-----x-----x-----x-----x-----x-----x--
B|--x-----x-----x-----x-----x-----x-----x-----x--
G|--6-----8-----3-----4-----6-----8-----6-----4--
D|--x-----x-----x-----x-----x-----x-----x-----x--
A|--4-----6-----1-----2-----4-----6-----4-----2--
E|--x-----x-----x-----x-----x-----x-----x-----x--

Stave 2:

E|-----------------|-----------------|-----------------|--------------------
B|-----------7--4--|-----------4-----|-----------7--4--|--------------------
G|--4--4--4--------|--4--4--4-----4--|--4--4--4--------|--4--4--4-----4--4--
D|-----------------|-----------------|-----------------|--------------------
A|-----------------|-----------------|-----------------|--------------------
E|-----------------|-----------------|-----------------|--------------------

							http://www.guitartabcreator.com
genre
Instruments
{"strings":[[["x0","_","x0","_","x0","_","x0","_","x0","_","x0","_","x0","_","x0"],["x0","_","x0","_","x0","_","x0","_","x0","_","x0","_","x0","_","x0"],[6,"_",8,"_",3,"_",4,"_",6,"_",8,"_",6,"_",4],["x0","_","x0","_","x0","_","x0","_","x0","_","x0","_","x0","_","x0"],[4,"_",6,"_",1,"_",2,"_",4,"_",6,"_",4,"_",2],["x0","_","x0","_","x0","_","x0","_","x0","_","x0","_","x0","_","x0"]],[[".",".",".",".",".","|",".",".",".",".",".","|",".",".",".",".",".","|",".",".",".","_",".","."],[".",".",".",7,4,"|",".",".",".",4,".","|",".",".",".",7,4,"|",".",".",".","_",".","."],[4,4,4,".",".","|",4,4,4,".",4,"|",4,4,4,".",".","|",4,4,4,"_",4,4],[".",".",".",".",".","|",".",".",".",".",".","|",".",".",".",".",".","|",".",".",".","_",".","."],[".",".",".",".",".","|",".",".",".",".",".","|",".",".",".",".",".","|",".",".",".","_",".","."],[".",".",".",".",".","|",".",".",".",".",".","|",".",".",".",".",".","|",".",".",".","_",".","."]]],"numberofstrings":6,"notes":["E","B","G","D","A","E","B"],"capo":0,"stringnotes":["E4","B3","G3","D3","A2","E2"],"comments":["Stave 1:","Stave 2:"],"timing":[["W","W","W",null,"W","W","W",null,"W",null,"W","W","W",null,"W"],["W","W","W","W","W",null,"W","W","W","W","W",null,"W","W","W","W","W",null,"W","W","W",null,"W","W"]],"timingvisible":false,"tabcounter":14,"stave":0,"totalstaves":2,"instrument":"6guitar","selectedtuning":"6_standard","version":"13"}

Member for

7 years 6 months
Submitted by LJN62 on Tue, 2020-09-08 15:54