The Chicken Main Melody

01234567891011121314151617181920212223
E
B
G
D
A
E
B
0 1 2 3 4 5 6 7 8 9 10 11 12 13 14 15 16 17 18 19 20 21 22 23
(/) Slide Up  (\) Slide Down  (h) Hammer On  (p) Pull Off  (b) Bend (r) Release (v) Vibrato

Stave 1:

E|----------------|-------------------------------|-------6--------------------
B|----------6-----|-----------------------8----6--|-----6h8--6-----------------
G|--------6h7-----|-----------6-----------8--6h7--|--7----------6--5--3-----3--
D|--5--8----------|-----5--8-----8--5--8----------|----------------------5-----
A|----------------|--8----------------------------|----------------------------
E|----------------|-------------------------------|----------------------------

Stave 2:

E|--6-----5--5-------------------|--------6--10--6--------------
B|--8-----7--7-----10--8------8--|--7--8------------8--8--7--8--
G|--6-----5--5------------10-----|------------------9--9--8--9--
D|-------------------------------|------------------8--8--7--8--
A|-------------------------------|------------------------------
E|-------------------------------|------------------------------

Stave 3:

E|--------6--10--6-----------------------6--10--6--------------
B|--7--8------------8--8--7--8-----7--8------------8--8--7--8--
G|------------------9--9--8--9---------------------9--9--8--9--
D|------------------8--8--7--8---------------------8--8--7--8--
A|-------------------------------------------------------------
E|-------------------------------------------------------------

Stave 4:

E|--6--------------------6--
B|-----9--6--------------6--
G|-----------8--6-----------
D|-----------------8--6-----
A|--------------------------
E|--------------------------

							http://www.guitartabcreator.com
Chords

Instruments
{"strings":[[[".",".",".",".",".","_","|",".",".",".",".",".",".",".",".",".",".",".","|",".",".",".",6,".",".",".",".",".","."],[".",".",".",".",6,"_","|",".",".",".",".",".",".",".",8,".",".",6,"|",".",6,"h",8,6,".",".",".",".","."],[".",".",6,"h",7,"_","|",".",".",".",6,".",".",".",8,6,"h",7,"|",7,".",".",".",".",6,5,3,".",3],[5,8,".",".",".","_","|",".",5,8,".",8,5,8,".",".",".",".","|",".",".",".",".",".",".",".",".",5,"."],[".",".",".",".",".","_","|",8,".",".",".",".",".",".",".",".",".",".","|",".",".",".",".",".",".",".",".",".","."],[".",".",".",".",".","_","|",".",".",".",".",".",".",".",".",".",".",".","|",".",".",".",".",".",".",".",".",".","."]],[[6,"_",5,5,"_",".",".",".",".","|",".",".",6,10,6,".",".",".","."],[8,"_",7,7,"_",10,8,".",8,"|",7,8,".",".",".",8,8,7,8],[6,"_",5,5,"_",".",".",10,".","|",".",".",".",".",".",9,9,8,9],[".","_",".",".","_",".",".",".",".","|",".",".",".",".",".",8,8,7,8],[".","_",".",".","_",".",".",".",".","|",".",".",".",".",".",".",".",".","."],[".","_",".",".","_",".",".",".",".","|",".",".",".",".",".",".",".",".","."]],[[".",".",6,10,6,".",".",".",".","_",".",".",6,10,6,".",".",".","."],[7,8,".",".",".",8,8,7,8,"_",7,8,".",".",".",8,8,7,8],[".",".",".",".",".",9,9,8,9,"_",".",".",".",".",".",9,9,8,9],[".",".",".",".",".",8,8,7,8,"_",".",".",".",".",".",8,8,7,8],[".",".",".",".",".",".",".",".",".","_",".",".",".",".",".",".",".",".","."],[".",".",".",".",".",".",".",".",".","_",".",".",".",".",".",".",".",".","."]],[[6,".",".",".",".",".",".",6],[".",9,6,".",".",".",".",6],[".",".",".",8,6,".",".","."],[".",".",".",".",".",8,6,"."],[".",".",".",".",".",".",".","."],[".",".",".",".",".",".",".","."]]],"numberofstrings":6,"notes":["E","B","G","D","A","E","B"],"capo":0,"stringnotes":["E4","B3","G3","D3","A2","E2"],"comments":["Stave 1:","Stave 2:","Stave 3:","Stave 4:"],"timing":[["W","W","W",null,"W","W",null,"W","W","W","W","W","W","W","W","W",null,"W","W","W","W",null,"W","W","W","W","W","W","W"],["W","W","W","W","W","W","W","W","W",null,"W","W","W","W","W","W","W","W","W"],["W","W","W","W","W","W","W","W","W","W","W","W","W","W","W","W","W","W","W"],["W","W","W","W","W","W","W","W"]],"timingvisible":false,"tabcounter":7,"stave":3,"totalstaves":4,"instrument":"6guitar","selectedtuning":"6_standard","version":"13"}

Member for

8 years 2 months
Submitted by LJN62 on Wed, 2021-06-16 16:56