Bitch Main Riff The Rolling Stones

Chords

01234567891011121314151617181920212223
E
B
G
D
A
E
B
0 1 2 3 4 5 6 7 8 9 10 11 12 13 14 15 16 17 18 19 20 21 22 23
(/) Slide Up  (\) Slide Down  (h) Hammer On  (p) Pull Off  (b) Bend (r) Release (v) Vibrato

Stave 1:

E|--------------------------------------
B|--------------------------------7--5--
G|--------------------------------7--5--
D|-----5--7--7--5--7--7--5--7--5--------
A|--7-----0--0--0--0--0--0--0--0--------
E|--------------------------------------

Stave 2:

E|-----------------------------------
B|-----------------7--5--------------
G|-----------------7--5--------------
D|-----5--7--7--5--------7--5--------
A|--7-----0--0--0--------------7-----
E|--------------------------------5--

							http://www.guitartabcreator.com
genre
Instruments
{"strings":[[[".",".",".",".",".",".",".",".",".",".",".","."],[".",".",".",".",".",".",".",".",".",".",7,5],[".",".",".",".",".",".",".",".",".",".",7,5],[".",5,7,7,5,7,7,5,7,5,".","."],[7,".",0,0,0,0,0,0,0,0,".","."],[".",".",".",".",".",".",".",".",".",".",".","."]],[[".",".",".",".",".",".",".",".",".",".","."],[".",".",".",".",".",7,5,".",".",".","."],[".",".",".",".",".",7,5,".",".",".","."],[".",5,7,7,5,".",".",7,5,".","."],[7,".",0,0,0,".",".",".",".",7,"."],[".",".",".",".",".",".",".",".",".",".",5]]],"numberofstrings":6,"notes":["E","B","G","D","A","E","B"],"capo":0,"stringnotes":["E4","B3","G3","D3","A2","E2"],"comments":["Stave 1:","Stave 2:"],"timing":[["W","W","W","W","W","W","W","W","W","W","W","W"],["W","W","W","W","W","W","W","W","W","W","W"]],"timingvisible":false,"tabcounter":11,"stave":1,"totalstaves":2,"instrument":"6guitar","selectedtuning":"6_standard","version":"13"}

Member for

7 years 6 months
Submitted by LJN62 on Mon, 2020-10-05 20:20