Bitch Intro & Solo

Chords

01234567891011121314151617181920212223
E
B
G
D
A
E
B
0 1 2 3 4 5 6 7 8 9 10 11 12 13 14 15 16 17 18 19 20 21 22 23
(/) Slide Up  (\) Slide Down  (h) Hammer On  (p) Pull Off  (b) Bend (r) Release (v) Vibrato

Stave 1:

E|--8p5--8--5-------------------|--8p5-------------------
B|-------------5-------5--------|------------5-----------
G|----------------7b9-----5-----|-------7b9-----7--5-----
D|---------------------------7--|---------------------7--
A|------------------------------|------------------------
E|------------------------------|------------------------

Stave 2:

E|-----------------------------------
B|-----------------------------------
G|--------5-----7--5--------5--------
D|--5--7-----7--------7--7-----7--7--
A|-----------------------------------
E|-----------------------------------

Stave 3:

E|-----------------------5-------------------------------------------
B|-------5-------5----------8--5-------5-----------------------------
G|--7b9-----7b9-----7b9-----------7b9-----7--5--7--5--------5-----5--
D|----------------------------------------------------7--7-----7-----
A|-------------------------------------------------------------------
E|-------------------------------------------------------------------

Stave 4:

E|-------------------------5--5--------8--5-----------------------------------------
B|-------5-----------------5--5--8--5-------------5---------------------------------
G|--7b9-----7--5--7--5-----------------------7b9-----7b9r7--5--7--5--------5-----5--
D|----------------------7--------------------------------------------7--7-----7-----
A|----------------------------------------------------------------------------------
E|----------------------------------------------------------------------------------

Stave 5:

E|-----------------------------------------------------------------------
B|-------8--8--8-------8--8-------8--8-------8--8-------8--8-------------
G|--7/9-----------7/9--------7/9--------7/9--------7/9--------7b9--7--5--
D|-----------------------------------------------------------------------
A|-----------------------------------------------------------------------
E|-----------------------------------------------------------------------

Stave 6:

E|---------------------------------------------------5--5--
B|-------5-----------------------------------5-------5--5--
G|--7b9-----7b9--7--5-----7b9--7--5-----7b9-----7b9--------
D|---------------------7-------------7---------------------
A|---------------------------------------------------------
E|---------------------------------------------------------

							http://www.guitartabcreator.com
genre
Instruments
{"strings":[[[8,"p",5,8,5,".",".",".",".",".",".",".","|",8,"p",5,".",".",".",".",".",".","."],[".",".",".",".",".",5,".",".",".",5,".",".","|",".",".",".",".",".",".",5,".",".","."],[".",".",".",".",".",".",7,"b",9,".",5,".","|",".",".",".",7,"b",9,".",7,5,"."],[".",".",".",".",".",".",".",".",".",".",".",7,"|",".",".",".",".",".",".",".",".",".",7],[".",".",".",".",".",".",".",".",".",".",".",".","|",".",".",".",".",".",".",".",".",".","."],[".",".",".",".",".",".",".",".",".",".",".",".","|",".",".",".",".",".",".",".",".",".","."]],[[".",".",".",".",".",".",".",".",".",".","."],[".",".",".",".",".",".",".",".",".",".","."],[".",".",5,".",7,5,".",".",5,".","."],[5,7,".",7,".",".",7,7,".",7,7],[".",".",".",".",".",".",".",".",".",".","."],[".",".",".",".",".",".",".",".",".",".","."]],[[".",".",".",".",".",".",".",".",".",".",".",5,".",".",".",".",".",".",".",".",".",".",".",".",".",".","."],[".",".",".",5,".",".",".",5,".",".",".",".",8,5,".",".",".",5,".",".",".",".",".",".",".",".","."],[7,"b",9,".",7,"b",9,".",7,"b",9,".",".",".",7,"b",9,".",7,5,7,5,".",".",5,".",5],[".",".",".",".",".",".",".",".",".",".",".",".",".",".",".",".",".",".",".",".",".",".",7,7,".",7,"."],[".",".",".",".",".",".",".",".",".",".",".",".",".",".",".",".",".",".",".",".",".",".",".",".",".",".","."],[".",".",".",".",".",".",".",".",".",".",".",".",".",".",".",".",".",".",".",".",".",".",".",".",".",".","."]],[[".",".",".",".",".",".",".",".",".",5,5,".",".",8,5,".",".",".",".",".",".",".",".",".",".",".",".",".",".",".",".","."],[".",".",".",5,".",".",".",".",".",5,5,8,5,".",".",".",".",".",5,".",".",".",".",".",".",".",".",".",".",".",".","."],[7,"b",9,".",7,5,7,5,".",".",".",".",".",".",".",7,"b",9,".",7,"b",9,"r",7,5,7,5,".",".",5,".",5],[".",".",".",".",".",".",".",".",7,".",".",".",".",".",".",".",".",".",".",".",".",".",".",".",".",".",".",7,7,".",7,"."],[".",".",".",".",".",".",".",".",".",".",".",".",".",".",".",".",".",".",".",".",".",".",".",".",".",".",".",".",".",".",".","."],[".",".",".",".",".",".",".",".",".",".",".",".",".",".",".",".",".",".",".",".",".",".",".",".",".",".",".",".",".",".",".","."]],[[".",".",".",".",".",".",".",".",".",".",".",".",".",".",".",".",".",".",".",".",".",".",".",".",".",".",".",".",".",".","."],[".",".",".",8,8,8,".",".",".",8,8,".",".",".",8,8,".",".",".",8,8,".",".",".",8,8,".",".",".",".","."],[7,"/",9,".",".",".",7,"/",9,".",".",7,"/",9,".",".",7,"/",9,".",".",7,"/",9,".",".",7,"b",9,7,5],[".",".",".",".",".",".",".",".",".",".",".",".",".",".",".",".",".",".",".",".",".",".",".",".",".",".",".",".",".",".","."],[".",".",".",".",".",".",".",".",".",".",".",".",".",".",".",".",".",".",".",".",".",".",".",".",".",".",".",".",".",".","."],[".",".",".",".",".",".",".",".",".",".",".",".",".",".",".",".",".",".",".",".",".",".",".",".",".",".",".",".",".",".","."]],[[".",".",".",".",".",".",".",".",".",".",".",".",".",".",".",".",".",".",".",".",".",".",".",5,5],[".",".",".",5,".",".",".",".",".",".",".",".",".",".",".",".",".",".",".",5,".",".",".",5,5],[7,"b",9,".",7,"b",9,7,5,".",7,"b",9,7,5,".",7,"b",9,".",7,"b",9,".","."],[".",".",".",".",".",".",".",".",".",7,".",".",".",".",".",7,".",".",".",".",".",".",".",".","."],[".",".",".",".",".",".",".",".",".",".",".",".",".",".",".",".",".",".",".",".",".",".",".",".","."],[".",".",".",".",".",".",".",".",".",".",".",".",".",".",".",".",".",".",".",".",".",".",".",".","."]]],"numberofstrings":6,"notes":["E","B","G","D","A","E","B"],"capo":0,"stringnotes":["E4","B3","G3","D3","A2","E2"],"comments":["Stave 1:","Stave 2:","Stave 3:","Stave 4:","Stave 5:","Stave 6:"],"timing":[["W",null,"W","W","W","W","W",null,"W","W","W","W",null,"W",null,"W","W",null,"W","W","W","W","W"],["W","W","W","W","W","W","W","W","W","W","W"],["W",null,"W","W","W",null,"W","W","W",null,"W","W","W","W","W",null,"W","W","W","W","W","W","W","W","W","W","W","W","W"],["W",null,"W","W","W","W","W","W","W","W","W","W","W","W","W","W",null,"W","W","W",null,"W",null,"W","W","W","W","W","W","W","W","W"],["W",null,"W","W","W","W","W",null,"W","W","W","W",null,"W","W","W","W",null,"W","W","W","W",null,"W","W","W","W",null,"W","W","W","W",null,"W","W"],["W",null,"W","W","W",null,"W","W","W","W","W",null,"W","W","W","W","W",null,"W","W","W",null,"W","W","W"]],"timingvisible":false,"tabcounter":24,"stave":5,"totalstaves":6,"instrument":"6guitar","selectedtuning":"6_standard","version":"13"}

Member for

7 years 8 months
Submitted by LJN62 on Tue, 2020-11-03 17:40