Sound will begin in 5 seconds

Alright Now Solo

01234567891011121314151617181920212223
E
B
G
D
A
E
B
0 1 2 3 4 5 6 7 8 9 10 11 12 13 14 15 16 17 18 19 20 21 22 23
Song Science #1: How Pros Use 6 Chords to Write Hit Songs
(/) Slide Up  (\) Slide Down  (h) Hammer On  (p) Pull Off  (b) Bend (r) Release (v) Vibrato

Stave 1:

E|--------------------------------------------------------------------------------
B|------13------13------13------15--13----------13--15b17r15--13--15--13----------
G|--14------14------14------14----------14--14----------------------------14--14--
D|--------------------------------------------------------------------------------
A|--------------------------------------------------------------------------------
E|--------------------------------------------------------------------------------

Stave 2:

E|--------------------------------------------------------------------------------------15b17--
B|------13------13------13------15--13----------13--15b17r15--13--15b17--17b20--13-------------
G|--14------14------14------14----------14--14--------------------------------------14---------
D|---------------------------------------------------------------------------------------------
A|---------------------------------------------------------------------------------------------
E|---------------------------------------------------------------------------------------------

Stave 3:

E|---------------------------------------------------------------5--5---------------
B|----------------------------3/5--5/7--7\5--3/5--5/7--7\5--------------------------
G|--2--2/4--2/4--2--2/4--4\2--------------------------------2h4--------4--4b6r4--2--
D|----------------------------------------------------------------------------------
A|----------------------------------------------------------------------------------
E|----------------------------------------------------------------------------------

Stave 4:

E|---------------------------------------------------------
B|--10---------10---------10---------10---------10--12b14--
G|------9--11------9--11------9--11------9--11-------------
D|---------------------------------------------------------
A|---------------------------------------------------------
E|---------------------------------------------------------

Stave 5:

E|-----------------------------------------------------
B|---------10---------10---------10---------10--12b14--
G|--9--11------9--11------9--11------9--11-------------
D|-----------------------------------------------------
A|-----------------------------------------------------
E|-----------------------------------------------------

Stave 6:

E|-----------------------------------------------------------------------
B|--12b14--10------10--10--12b14--10------10--10--12b14--10------10--10--
G|-------------11---------------------11---------------------11----------
D|-----------------------------------------------------------------------
A|-----------------------------------------------------------------------
E|-----------------------------------------------------------------------

Stave 7:

E|----------17----------17----------17----------17---------17------20b22r17--20---------17---------
B|--17--20------17--20------17--20------17--20------20b22------17----------------20b22------20b22--
G|-------------------------------------------------------------------------------------------------
D|-------------------------------------------------------------------------------------------------
A|-------------------------------------------------------------------------------------------------
E|-------------------------------------------------------------------------------------------------

Stave 8:

E|--17----------17----------17----------17----------17---------17------20b22--20b22------20---------
B|------17--20------17--20------17--20------17--20------20b22------17----------------20------20b22--
G|--------------------------------------------------------------------------------------------------
D|--------------------------------------------------------------------------------------------------
A|--------------------------------------------------------------------------------------------------
E|--------------------------------------------------------------------------------------------------

Stave 9:

E|--17--------------------------
B|------20--20--19--19--17--17--
G|------------------------------
D|------------------------------
A|------------------------------
E|------------------------------

http://www.guitartabcreator.com
Guitar Tab Creator is intended to store guitar tab created through the tool. It currently does not support in-line text editing. Any text you place in here will be lost. If you need to comment on your tab, please use the "Tab Notes" section located below.