All I Wanted Lead Lines Paramore

Chords

01234567891011121314151617181920212223
E
B
G
D
A
E
B
0 1 2 3 4 5 6 7 8 9 10 11 12 13 14 15 16 17 18 19 20 21 22 23
(/) Slide Up  (\) Slide Down  (h) Hammer On  (p) Pull Off  (b) Bend (r) Release (v) Vibrato

Stave 1:

E|------------------------------------------------------
B|------------------------------------------------------
G|--7--7--6-----11--9--7-----7--6-----------------------
D|-----------4------------------------2--4--2--4--2--4--
A|------------------------------------------------------
E|------------------------------------------------------

Stave 2:

E|-------------------------------------
B|--------------------------10---------
G|--9--11--9--11--9--11--9--7---11--9--
D|-------------------------------------
A|--7--9---7--9---7--9---7------9---7--
E|-------------------------------------

Stave 3:

E|--------10--9-------------|--------10--9-----------
B|--------------------------|------------------------
G|--7--6--7---6--9--11--11--|--7--6--7---6--9--9b11--
D|--------------------------|------------------------
A|--5--4---------7--9---9---|--5--4---------7--------
E|--------------------------|------------------------

							http://www.guitartabcreator.com
genre
Instruments
{"strings":[[[".",".",".",".",".",".",".","_",".",".","_",".",".",".",".",".","."],[".",".",".",".",".",".",".","_",".",".","_",".",".",".",".",".","."],[7,7,6,".",11,9,7,"_",7,6,"_",".",".",".",".",".","."],[".",".",".",4,".",".",".","_",".",".","_",2,4,2,4,2,4],[".",".",".",".",".",".",".","_",".",".","_",".",".",".",".",".","."],[".",".",".",".",".",".",".","_",".",".","_",".",".",".",".",".","."]],[[".",".",".",".",".",".",".",".",".","."],[".",".",".",".",".",".",".",10,".","."],[9,11,9,11,9,11,9,7,11,9],[".",".",".",".",".",".",".",".",".","."],[7,9,7,9,7,9,7,".",9,7],[".",".",".",".",".",".",".",".",".","."]],[[".",".",10,9,".",".",".","|",".",".",10,9,".",".",".","."],[".",".",".",".",".",".",".","|",".",".",".",".",".",".",".","."],[7,6,7,6,9,11,11,"|",7,6,7,6,9,9,"b",11],[".",".",".",".",".",".",".","|",".",".",".",".",".",".",".","."],[5,4,".",".",7,9,9,"|",5,4,".",".",7,".",".","."],[".",".",".",".",".",".",".","|",".",".",".",".",".",".",".","."]]],"numberofstrings":6,"notes":["E","B","G","D","A","E","B"],"capo":0,"stringnotes":["E4","B3","G3","D3","A2","E2"],"comments":["Stave 1:","Stave 2:","Stave 3:","Stave 4:"],"timing":[["W","W","W","W","W","W","W",null,"W","W","W","W","W","W","W","W","W"],["W","W","W","W","W","W","W","W","W","W"],["W","W","W","W","W","W","W",null,"W","W","W","W","W","W",null,"W"],[]],"timingvisible":false,"tabcounter":0,"totalstaves":3,"instrument":"6guitar","selectedtuning":"6_standard","version":"13"}

Member for

7 years 6 months
Submitted by LJN62 on Wed, 2020-10-07 16:35