Sound will begin in 5 seconds

Albatross Part 1

Chords
01234567891011121314151617181920212223
E
B
G
D
A
E
B
0 1 2 3 4 5 6 7 8 9 10 11 12 13 14 15 16 17 18 19 20 21 22 23
Song Science #1: How Pros Use 6 Chords to Write Hit Songs
(/) Slide Up  (\) Slide Down  (h) Hammer On  (p) Pull Off  (b) Bend (r) Release (v) Vibrato

Stave 1:

E|-----5--4--5--4--|-----5--4--5--4--|----------------------------------------
B|-----5--4--5--4--|-----5--4--5--4--|----------------------------------------
G|-----6--4--6--4--|-----6--4--6--4--|----------------------------------------
D|-----7--6--7--6--|-----7--6--7--6--|--------2-----4/6--4------------4/6--4--
A|-----------------|-----------------|--2--4-----4----------2h4--2h4----------
E|--7--------------|--7--------------|----------------------------------------

Stave 2:

E|----------------------------|--
B|----------------------------|--
G|----------------------------|--
D|------------2h4--2--2h4--2--|--
A|--2h4--2h4------------------|--
E|----------------------------|--

Stave 3:

E|-----5--4--5--4--|-----5--4--5--4--|-----------------------------------------
B|-----5--4--5--4--|-----5--4--5--4--|-----------------------------------------
G|-----6--4--6--4--|-----6--4--6--4--|---------------------------4--6----------
D|-----7--6--7--6--|-----7--6--7--6--|--------2-----4/6--4--4h6--------4h6--4--
A|-----------------|-----------------|--2--4-----4-----------------------------
E|--7--------------|--7--------------|-----------------------------------------

Stave 4:

E|---------------------------
B|---------------------------
G|---------------------------
D|-----2--4h6--2-----2h4--2--
A|--4-------------4----------
E|---------------------------

http://www.guitartabcreator.com
Guitar Tab Creator is intended to store guitar tab created through the tool. It currently does not support in-line text editing. Any text you place in here will be lost. If you need to comment on your tab, please use the "Tab Notes" section located below.