A Kingdom For Keflings: Spring Theme

01234567891011121314151617181920212223
E
B
G
D
A
E
B
0 1 2 3 4 5 6 7 8 9 10 11 12 13 14 15 16 17 18 19 20 21 22 23
(/) Slide Up  (\) Slide Down  (h) Hammer On  (p) Pull Off  (b) Bend (r) Release (v) Vibrato

Background Parts 1&3 (Rhythm 1):

E|-9------10-----7-----5---
B|-10-----10-----9-----7---
G|-9------11-----9-----7---
D|-------------------------
A|-------------------------
E|-------------------------

Background Parts 1&3 (Rhythm 2):

E|-0-----2-----0-----2-
B|-2-----3-----0-----3-
G|-2-----2-----1-----2-
D|-2-----0-----2-----0-
A|-0-----------2-------
E|-------------0-------

Part 1 (Lead):

E|-------------------------------------------------------------------
B|-10---10-10-9-9-7-7---5-5---5-------10---10-10-9-9-7-9p7---5-5---5-
G|--------------------------6------------------------------------6---
D|----------------------------------7--------------------------------
A|-------------------------------------------------------------------
E|-------------------------------------------------------------------



E|-------------------------------------------------
B|-----5---5---5/7-5-------------------------------
G|-4/6---6-----------5p4p2-----2h4-4---4/6-4-2-----
D|-------------------------4-------------------4/7-
A|-------------------------------------------------
E|-------------------------------------------------



E|-------------------------------------------------
B|---5---5---5/7-5---------------------------------
G|-6---6---6-------6\4p2-----2---2-4-4/6-6\4-2---2-
D|-----------------------4---------------------4---
A|-------------------------------------------------
E|-------------------------------------------------

Background Part 2 (Rhythm):

E|-0-----2-----0-----0-----2-----2-----0-
B|-2-----3-----0-----2-----2-----3-----0-
G|-2-----2-----1-----2-----2-----2-----1-
D|-2-----0-----2-----2-----4-----0-----2-
A|-0-----------2-----0-----4-----------2-
E|-------------0-----------2-----------0-

Part 2 (Lead):

E|-----------------------------------------------------------------------------
B|-----5---5/7-5-----------------5-----------------------------2h3-2-----------
G|-4/6-----------6\4p2---4---4-4---4/6---6\4p2-------2-2---2h4-------4-2---2/4-
D|-----------------------------------------------2h4---------------------------
A|-----------------------------------------------------------------------------
E|-----------------------------------------------------------------------------



E|---------------------------------------------5---7/9---9-9---9/10---7/9-9\7-5-5h7-7-
B|-------5---5/7-5-----------------5---------5---5------------------------------------
G|-2-4/6-----------6\4p2---4---4-4---4/6---6------------------------------------------
D|------------------------------------------------------------------------------------
A|------------------------------------------------------------------------------------
E|------------------------------------------------------------------------------------

Transition to Part 3 (Lead):

E|-9-7-7-7---
B|---------5-
G|-----------
D|-----------
A|-----------
E|-----------

Part 3 (Lead):

E|---------------------------------------------------------------
B|-----5---5---5/7-5-------------------2-2h3---2-----------------
G|-4/6---6-----------5\4p2---2h4---4-4-----------4-2-----------2-
D|-------------------------4-------------------------4-2---------
A|-------------------------------------------------------5-4-----
E|---------------------------------------------------------------



E|---------------------------------------------------------------------------
B|-----------2-3-5---5-5---5---5/7-5-----------------------------------------
G|-----1-2-4-------------------------6\4p2---2h4---4-4---6-6\4---2-2---2-----
D|-2-4---------------------------------------------------------------4---4/7-
A|---------------------------------------------------------------------------
E|---------------------------------------------------------------------------



E|-----------------------------------
B|-----------------------------------
G|-----------6-7---------------------
D|-----6-7-9-----7---7---7---7---5/7-
A|-7-9-------------------------------
E|-----------------------------------

							http://www.guitartabcreator.com
Chords

Instruments
{"strings":[[[9,"_","_",10,"_","_",7,"_","_",5,"_"],[10,"_","_",10,"_","_",9,"_","_",7,"_"],[9,"_","_",11,"_","_",9,"_","_",7,"_"],[".","_","_",".","_","_",".","_","_",".","_"],[".","_","_",".","_","_",".","_","_",".","_"],[".","_","_",".","_","_",".","_","_",".","_"]],[[0,"_","_",2,"_","_",0,"_","_",2],[2,"_","_",3,"_","_",0,"_","_",3],[2,"_","_",2,"_","_",1,"_","_",2],[2,"_","_",0,"_","_",2,"_","_",0],[0,"_","_",".","_","_",2,"_","_","."],[".","_","_",".","_","_",0,"_","_","."]],[[".","_",".",".",".",".",".",".","_",".",".",".",".","_","_",".",".","_",".",".",".",".",".",".",".",".","_",".",".",".","."],[10,"_",10,10,9,9,7,7,"_",5,5,".",5,"_","_",".",10,"_",10,10,9,9,7,9,"p",7,"_",5,5,".",5],[".","_",".",".",".",".",".",".","_",".",".",6,".","_","_",".",".","_",".",".",".",".",".",".",".",".","_",".",".",6,"."],[".","_",".",".",".",".",".",".","_",".",".",".",".","_","_",7,".","_",".",".",".",".",".",".",".",".","_",".",".",".","."],[".","_",".",".",".",".",".",".","_",".",".",".",".","_","_",".",".","_",".",".",".",".",".",".",".",".","_",".",".",".","."],[".","_",".",".",".",".",".",".","_",".",".",".",".","_","_",".",".","_",".",".",".",".",".",".",".",".","_",".",".",".","."]],[[".",".",".",".",".",".","_",".",".",".",".",".",".",".",".",".",".","_",".",".",".",".","_",".",".",".",".",".",".",".","."],[".",".",".",5,".",5,"_",5,"/",7,5,".",".",".",".",".",".","_",".",".",".",".","_",".",".",".",".",".",".",".","."],[4,"/",6,".",6,".","_",".",".",".",".",5,"p",4,"p",2,".","_",2,"h",4,4,"_",4,"/",6,4,2,".",".","."],[".",".",".",".",".",".","_",".",".",".",".",".",".",".",".",".",4,"_",".",".",".",".","_",".",".",".",".",".",4,"/",7],[".",".",".",".",".",".","_",".",".",".",".",".",".",".",".",".",".","_",".",".",".",".","_",".",".",".",".",".",".",".","."],[".",".",".",".",".",".","_",".",".",".",".",".",".",".",".",".",".","_",".",".",".",".","_",".",".",".",".",".",".",".","."]],[[".",".",".",".",".",".",".",".",".",".",".",".",".",".",".","_",".","_",".",".",".",".",".",".",".",".",".",".","."],[".",5,".",5,".",5,"/",7,5,".",".",".",".",".",".","_",".","_",".",".",".",".",".",".",".",".",".",".","."],[6,".",6,".",6,".",".",".",".",6,"\\",4,"p",2,".","_",2,"_",2,4,4,"/",6,6,"\\",4,2,".",2],[".",".",".",".",".",".",".",".",".",".",".",".",".",".",4,"_",".","_",".",".",".",".",".",".",".",".",".",4,"."],[".",".",".",".",".",".",".",".",".",".",".",".",".",".",".","_",".","_",".",".",".",".",".",".",".",".",".",".","."],[".",".",".",".",".",".",".",".",".",".",".",".",".",".",".","_",".","_",".",".",".",".",".",".",".",".",".",".","."]],[[0,"_","_",2,"_","_",0,"_","_",0,"_","_",2,"_","_",2,"_","_",0],[2,"_","_",3,"_","_",0,"_","_",2,"_","_",2,"_","_",3,"_","_",0],[2,"_","_",2,"_","_",1,"_","_",2,"_","_",2,"_","_",2,"_","_",1],[2,"_","_",0,"_","_",2,"_","_",2,"_","_",4,"_","_",0,"_","_",2],[0,"_","_",".","_","_",2,"_","_",0,"_","_",4,"_","_",".","_","_",2],[".","_","_",".","_","_",0,"_","_",".","_","_",2,"_","_",".","_","_",0]],[[".",".",".",".","_",".",".",".",".",".",".",".",".",".","_",".","_",".",".",".",".",".",".","_",".",".",".",".",".","_",".",".",".",".",".","_",".",".",".",".",".",".",".",".",".","_",".",".","."],[".",".",".",5,"_",5,"/",7,5,".",".",".",".",".","_",".","_",".",".",5,".",".",".","_",".",".",".",".",".","_",".",".",".",".",".","_",".",".",".",2,"h",3,2,".",".","_",".",".","."],[4,"/",6,".","_",".",".",".",".",6,"\\",4,"p",2,"_",4,"_",4,4,".",4,"/",6,"_",6,"\\",4,"p",2,"_",".",".",".",2,2,"_",2,"h",4,".",".",".",".",4,2,"_",2,"/",4],[".",".",".",".","_",".",".",".",".",".",".",".",".",".","_",".","_",".",".",".",".",".",".","_",".",".",".",".",".","_",2,"h",4,".",".","_",".",".",".",".",".",".",".",".",".","_",".",".","."],[".",".",".",".","_",".",".",".",".",".",".",".",".",".","_",".","_",".",".",".",".",".",".","_",".",".",".",".",".","_",".",".",".",".",".","_",".",".",".",".",".",".",".",".",".","_",".",".","."],[".",".",".",".","_",".",".",".",".",".",".",".",".",".","_",".","_",".",".",".",".",".",".","_",".",".",".",".",".","_",".",".",".",".",".","_",".",".",".",".",".",".",".",".",".","_",".",".","."]],[[".",".",".",".",".","_",".",".",".",".",".",".",".",".",".","_",".","_",".",".",".",".",".",".","_",".",".",5,".",7,"/",9,"_",9,9,"_",9,"/",10,"_",7,"/",9,9,"\\",7,5,5,"h",7,7],[".",".",".",".",5,"_",5,"/",7,5,".",".",".",".",".","_",".","_",".",".",5,".",".",".","_",".",5,".",5,".",".",".","_",".",".","_",".",".",".","_",".",".",".",".",".",".",".",".",".",".","."],[2,4,"/",6,".","_",".",".",".",".",6,"\\",4,"p",2,"_",4,"_",4,4,".",4,"/",6,"_",6,".",".",".",".",".",".","_",".",".","_",".",".",".","_",".",".",".",".",".",".",".",".",".",".","."],[".",".",".",".",".","_",".",".",".",".",".",".",".",".",".","_",".","_",".",".",".",".",".",".","_",".",".",".",".",".",".",".","_",".",".","_",".",".",".","_",".",".",".",".",".",".",".",".",".",".","."],[".",".",".",".",".","_",".",".",".",".",".",".",".",".",".","_",".","_",".",".",".",".",".",".","_",".",".",".",".",".",".",".","_",".",".","_",".",".",".","_",".",".",".",".",".",".",".",".",".",".","."],[".",".",".",".",".","_",".",".",".",".",".",".",".",".",".","_",".","_",".",".",".",".",".",".","_",".",".",".",".",".",".",".","_",".",".","_",".",".",".","_",".",".",".",".",".",".",".",".",".",".","."]],[[9,7,7,7,"."],[".",".",".",".",5],[".",".",".",".","."],[".",".",".",".","."],[".",".",".",".","."],[".",".",".",".","."]],[[".",".",".",".",".",".","_",".",".",".",".",".",".",".",".",".",".",".",".",".","_",".",".",".",".",".",".","_",".",".",".",".",".",".",".","_","."],[".",".",".",5,".",5,"_",5,"/",7,5,".",".",".",".",".",".",".",".",".","_",".",".",2,2,"h",3,"_",2,".",".",".",".",".",".","_","."],[4,"/",6,".",6,".","_",".",".",".",".",5,"\\",4,"p",2,".",2,"h",4,"_",4,4,".",".",".",".","_",".",4,2,".",".",".",".","_",2],[".",".",".",".",".",".","_",".",".",".",".",".",".",".",".",".",4,".",".",".","_",".",".",".",".",".",".","_",".",".",".",4,2,".",".","_","."],[".",".",".",".",".",".","_",".",".",".",".",".",".",".",".",".",".",".",".",".","_",".",".",".",".",".",".","_",".",".",".",".",".",5,4,"_","."],[".",".",".",".",".",".","_",".",".",".",".",".",".",".",".",".",".",".",".",".","_",".",".",".",".",".",".","_",".",".",".",".",".",".",".","_","."]],[[".",".",".",".",".",".",".",".","_",".",".","_",".","_",".",".",".",".",".",".",".",".",".","_",".",".",".","_",".",".","_",".",".",".",".","_",".",".",".",".",".",".","."],[".",".",".",".",".",2,3,5,"_",5,5,"_",5,"_",5,"/",7,5,".",".",".",".",".","_",".",".",".","_",".",".","_",".",".",".",".","_",".",".",".",".",".",".","."],[".",".",1,2,4,".",".",".","_",".",".","_",".","_",".",".",".",".",6,"\\",4,"p",2,"_",2,"h",4,"_",4,4,"_",6,6,"\\",4,"_",2,2,".",2,".",".","."],[2,4,".",".",".",".",".",".","_",".",".","_",".","_",".",".",".",".",".",".",".",".",".","_",".",".",".","_",".",".","_",".",".",".",".","_",".",".",4,".",4,"/",7],[".",".",".",".",".",".",".",".","_",".",".","_",".","_",".",".",".",".",".",".",".",".",".","_",".",".",".","_",".",".","_",".",".",".",".","_",".",".",".",".",".",".","."],[".",".",".",".",".",".",".",".","_",".",".","_",".","_",".",".",".",".",".",".",".",".",".","_",".",".",".","_",".",".","_",".",".",".",".","_",".",".",".",".",".",".","."]],[[".",".",".",".",".",".",".",".","_",".","_",".","_",".","_",".",".","."],[".",".",".",".",".",".",".",".","_",".","_",".","_",".","_",".",".","."],[".",".",".",".",".",6,7,".","_",".","_",".","_",".","_",".",".","."],[".",".",6,7,9,".",".",7,"_",7,"_",7,"_",7,"_",5,"/",7],[7,9,".",".",".",".",".",".","_",".","_",".","_",".","_",".",".","."],[".",".",".",".",".",".",".",".","_",".","_",".","_",".","_",".",".","."]]],"numberofstrings":6,"notes":["E","B","G","D","A","E","B"],"capo":0,"stringnotes":["E4","B3","G3","D3","A2","E2"],"comments":["Background Parts 1&3 (Rhythm 1):","Background Parts 1&3 (Rhythm 2):","Part 1 (Lead):","","","Background Part 2 (Rhythm):","Part 2 (Lead):","","Transition to Part 3 (Lead):","Part 3 (Lead):","",""],"timing":[["W","W","W","W","W","W","W","W","W","W","W"],["W","W","W","W","W","W","W","W","W","W"],["W","W","W","W","W","W","W","W","W","W","W","W","W","W","W","W","W","W","W","W","W","W","W","W",null,"W","W","W","W","W","W"],["W",null,"W","W","W","W","W","W",null,"W","W","W",null,"W",null,"W","W","W","W",null,"W","W","W","W",null,"W","W","W","W",null,"W"],["W","W","W","W","W","W",null,"W","W","W",null,"W",null,"W","W","W","W","W","W","W","W",null,"W","W",null,"W","W","W","W"],["W","W","W","W","W","W","W","W","W","W","W","W","W","W","W","W","W","W","W"],["W",null,"W","W",null,"W","W","W",null,"W","W","W","W","W","W","W","W",null,"W","W","W",null,"W",null,"W","W","W",null,"W","W","W","W","W",null,"W","W",null,"W","W","W","W","W","W",null,"W"],["W","W",null,"W","W","W","W",null,"W","W","W",null,"W",null,"W","W","W","W","W","W","W","W",null,"W","W","W","W","W","W","W",null,"W","W","W","W","W","W",null,"W","W","W",null,"W","W",null,"W","W","W",null,"W","W"],["W","W","W","W","W"],["W",null,"W","W","W","W","W","W",null,"W","W","W",null,"W",null,"W","W","W",null,"W","W","W","W","W","W",null,"W","W","W","W","W","W","W","W","W","W","W"],["W","W","W","W","W","W","W","W","W","W","W","W","W","W","W",null,"W","W","W",null,"W",null,"W","W","W",null,"W","W","W","W","W","W","W",null,"W","W","W","W","W","W","W",null,"W"],["W","W","W","W","W","W","W","W","W","W","W","W","W","W","W",null,"W"]],"timingvisible":false,"tabcounter":18,"stave":7,"totalstaves":12,"instrument":"6guitar","selectedtuning":"6_standard","version":"13"}

Member for

2 years 11 months
Submitted by lj4kolb on Wed, 2021-08-04 15:25