Club Penguin: Pizzatron 3000

Chords

01234567891011121314151617181920212223
E
B
G
D
A
E
B
0 1 2 3 4 5 6 7 8 9 10 11 12 13 14 15 16 17 18 19 20 21 22 23
(/) Slide Up  (\) Slide Down  (h) Hammer On  (p) Pull Off  (b) Bend (r) Release (v) Vibrato

Stave 1:

E|-11h13p11----11h13p11----------15-11-13----11-------13-11-------
B|----------------------------13----------15----13-15-------15-13-
G|-------------------------12-------------------------------------
D|----------------------------------------------------------------
A|----------------------------------------------------------------
E|----------------------------------------------------------------

Stave 2:

E|----------13-15----15h16p15-13-------------15-16-18-20-16-15-16-15----------------15-------
B|-13-15-16----------------------16-15-13----------------------------16-15-17-18-19-------12-
G|-------------------------------------------------------------------------------------------
D|-------------------------------------------------------------------------------------------
A|-------------------------------------------------------------------------------------------
E|-------------------------------------------------------------------------------------------

Stave 3:

E|----------13-15----15h16p15-13-------------20----16h18p16-------16-15h16p15-------13-15p13-15----------
B|-13-15-16----------------------16-15-13-------------------18----------------16----------------16-15-13-
G|-------------------------------------------------------------------------------------------------------
D|-------------------------------------------------------------------------------------------------------
A|-------------------------------------------------------------------------------------------------------
E|-------------------------------------------------------------------------------------------------------

Stave 4:

E|----------------------------------------18----18----18----16-15h16p15----16-15-
B|-13----13----13----11-9h11p9----11-9----15----15----15----------------18-------
G|-----------------------------12------------------------------------------------
D|-------------------------------------------------------------------------------
A|-------------------------------------------------------------------------------
E|-------------------------------------------------------------------------------

Stave 5:

E|-------15----15----15-13----------------13-15----16-15h16p15-13-16-15----15----15-17-19-20-
B|----12-------------------16-15-13-15-16----------------------------------------------------
G|-12----------------------------------------------------------------------------------------
D|-------------------------------------------------------------------------------------------
A|-------------------------------------------------------------------------------------------
E|-------------------------------------------------------------------------------------------

Stave 6:

E|-
B|-
G|-
D|-
A|-
E|-

							http://www.guitartabcreator.com
Instruments
{"strings":[[[11,"h",13,"p",11,"_",11,"h",13,"p",11,"_",".",".",15,11,13,".",11,".",".",13,11,".","."],[".",".",".",".",".","_",".",".",".",".",".","_",".",13,".",".",".",15,".",13,15,".",".",15,13],[".",".",".",".",".","_",".",".",".",".",".","_",12,".",".",".",".",".",".",".",".",".",".",".","."],[".",".",".",".",".","_",".",".",".",".",".","_",".",".",".",".",".",".",".",".",".",".",".",".","."],[".",".",".",".",".","_",".",".",".",".",".","_",".",".",".",".",".",".",".",".",".",".",".",".","."],[".",".",".",".",".","_",".",".",".",".",".","_",".",".",".",".",".",".",".",".",".",".",".",".","."]],[[".",".",".",13,15,"_",15,"h",16,"p",15,13,".",".",".","_",15,16,18,20,16,15,16,15,".",".",".",".",".",15,"_","."],[13,15,16,".",".","_",".",".",".",".",".",".",16,15,13,"_",".",".",".",".",".",".",".",".",16,15,17,18,19,".","_",12],[".",".",".",".",".","_",".",".",".",".",".",".",".",".",".","_",".",".",".",".",".",".",".",".",".",".",".",".",".",".","_","."],[".",".",".",".",".","_",".",".",".",".",".",".",".",".",".","_",".",".",".",".",".",".",".",".",".",".",".",".",".",".","_","."],[".",".",".",".",".","_",".",".",".",".",".",".",".",".",".","_",".",".",".",".",".",".",".",".",".",".",".",".",".",".","_","."],[".",".",".",".",".","_",".",".",".",".",".",".",".",".",".","_",".",".",".",".",".",".",".",".",".",".",".",".",".",".","_","."]],[[".",".",".",13,15,"_",15,"h",16,"p",15,13,".",".",".","_",20,"_",16,"h",18,"p",16,".","_",16,15,"h",16,"p",15,".","_",13,15,"p",13,15,".",".","."],[13,15,16,".",".","_",".",".",".",".",".",".",16,15,13,"_",".","_",".",".",".",".",".",18,"_",".",".",".",".",".",".",16,"_",".",".",".",".",".",16,15,13],[".",".",".",".",".","_",".",".",".",".",".",".",".",".",".","_",".","_",".",".",".",".",".",".","_",".",".",".",".",".",".",".","_",".",".",".",".",".",".",".","."],[".",".",".",".",".","_",".",".",".",".",".",".",".",".",".","_",".","_",".",".",".",".",".",".","_",".",".",".",".",".",".",".","_",".",".",".",".",".",".",".","."],[".",".",".",".",".","_",".",".",".",".",".",".",".",".",".","_",".","_",".",".",".",".",".",".","_",".",".",".",".",".",".",".","_",".",".",".",".",".",".",".","."],[".",".",".",".",".","_",".",".",".",".",".",".",".",".",".","_",".","_",".",".",".",".",".",".","_",".",".",".",".",".",".",".","_",".",".",".",".",".",".",".","."]],[[".","_",".","_",".","_",".",".",".",".",".",".",".",".",".","_",18,"_",18,"_",18,"_",16,15,"h",16,"p",15,".",16,15],[13,"_",13,"_",13,"_",11,9,"h",11,"p",9,".",11,9,"_",15,"_",15,"_",15,"_",".",".",".",".",".",".",18,".","."],[".","_",".","_",".","_",".",".",".",".",".",".",12,".",".","_",".","_",".","_",".","_",".",".",".",".",".",".",".",".","."],[".","_",".","_",".","_",".",".",".",".",".",".",".",".",".","_",".","_",".","_",".","_",".",".",".",".",".",".",".",".","."],[".","_",".","_",".","_",".",".",".",".",".",".",".",".",".","_",".","_",".","_",".","_",".",".",".",".",".",".",".",".","."],[".","_",".","_",".","_",".",".",".",".",".",".",".",".",".","_",".","_",".","_",".","_",".",".",".",".",".",".",".",".","."]],[[".",".",15,"_",15,"_",15,13,".",".",".",".",".",13,15,"_",16,15,"h",16,"p",15,13,16,15,"_",15,"_",15,17,19,20],[".",12,".","_",".","_",".",".",16,15,13,15,16,".",".","_",".",".",".",".",".",".",".",".",".","_",".","_",".",".",".","."],[12,".",".","_",".","_",".",".",".",".",".",".",".",".",".","_",".",".",".",".",".",".",".",".",".","_",".","_",".",".",".","."],[".",".",".","_",".","_",".",".",".",".",".",".",".",".",".","_",".",".",".",".",".",".",".",".",".","_",".","_",".",".",".","."],[".",".",".","_",".","_",".",".",".",".",".",".",".",".",".","_",".",".",".",".",".",".",".",".",".","_",".","_",".",".",".","."],[".",".",".","_",".","_",".",".",".",".",".",".",".",".",".","_",".",".",".",".",".",".",".",".",".","_",".","_",".",".",".","."]],[[],[],[],[],[],[]]],"numberofstrings":6,"notes":["E","B","G","D","A","E","B"],"capo":0,"stringnotes":["E4","B3","G3","D3","A2","E2"],"comments":["Stave 1:","Stave 2:","Stave 3:","Stave 4:","Stave 5:","Stave 6:"],"timing":[["W",null,"W",null,"W",null,"W",null,"W",null,"W",null,"W","W","W","W","W","W","W","W","W","W","W","W","W",null,"W","W","W","W","W",null,"W",null,"W",null,"W","W","W","W","W",null,"W","W","W","W","W","W","W","W","W"],["W","W","W","W","W",null,"W",null,"W",null,"W","W","W","W","W",null,"W","W","W","W","W","W","W","W","W","W","W","W","W","W","W","W"],["W","W","W","W","W",null,"W",null,"W",null,"W","W","W","W","W",null,"W",null,"W","W","W","W","W","W",null,"W","W",null,"W",null,"W","W",null,"W","W",null,"W","W","W","W","W"],["W",null,"W",null,"W",null,"W","W",null,"W",null,"W","W","W","W","W","W",null,"W",null,"W",null,"W","W",null,"W",null,"W","W","W","W",null,"W","W","W",null,"W",null,"W","W","W","W","W","W","W","W","W"],["W","W","W",null,"W",null,"W","W","W","W","W","W","W","W","W",null,"W","W",null,"W",null,"W","W","W","W",null,"W",null,"W","W","W","W"],[]],"timingvisible":false,"tabcounter":0,"stave":5,"totalstaves":6,"instrument":"6guitar","selectedtuning":"6_standard","version":"13"}

Member for

1 year 11 months
Submitted by lj4kolb on Thu, 2020-09-24 11:25