Jesus Of Suburbia Lesson 1 Act 1

Chords

01234567891011121314151617181920212223
E
B
G
D
A
E
B
0 1 2 3 4 5 6 7 8 9 10 11 12 13 14 15 16 17 18 19 20 21 22 23
(/) Slide Up  (\) Slide Down  (h) Hammer On  (p) Pull Off  (b) Bend (r) Release (v) Vibrato

Stave 1: Verse: Play 2x

G|-------------------------------------------------------------------------------------------------------------------
D|--------------------------------------3h4--4--4--4--4--4--4--4--4--4--4--4--4--------------------------------------
A|--4--4--4--4--------1--1--1--1-------------------------------------------------------------------------------------
E|-------------------------------------------------------------------------------4--4--4--4--4--4--4--4--4--4--4--4--

Stave 2:Chorus Play 2x

G|-----------------------------------------------
D|--------4--------------------------------------
A|-----------------------------------------------
E|-----2-----2--2--4--4--4--4--4--4--4--4--4-----

Stave 3:Chorus Pt. 2 

G|-----------------------------------------------
D|--4--3-----------------------------------------
A|--------6--4--3--------------------------------
E|-----------------------------------------------

Stave 4:Chorus End - Go To Verse 1st time, to Act 1 Outro second time

G|--------------------------------------------------------------------------
D|--------------------------------------------------------------------------
A|--4--4--------------------------------4--4--------------------------------
E|--------4--4--2--2--2--2--2--2--2--2--------4--4--2--2--2--2--2--2--2--2--

Act 1 outro. Play Verse line 1x then play:

G|---------------------------------------------------------------------------
D|------------------------------------------------------------------------6--
A|--4--4--4--4--------------------1--1--1------------------------------------
E|--------------------1--1--1--1-----------4--4--4--2v--v--v--v--2--2--4-----

							http://www.guitartabcreator.com
Instruments
{"strings":[[[".",".",".",".","_","_",".",".",".",".","_","_",".",".",".",".",".",".",".",".",".",".",".",".",".",".",".",".",".",".",".",".",".",".",".",".",".",".","."],[".",".",".",".","_","_",".",".",".",".","_","_",3,"h",4,4,4,4,4,4,4,4,4,4,4,4,4,".",".",".",".",".",".",".",".",".",".",".","."],[4,4,4,4,"_","_",1,1,1,1,"_","_",".",".",".",".",".",".",".",".",".",".",".",".",".",".",".",".",".",".",".",".",".",".",".",".",".",".","."],[".",".",".",".","_","_",".",".",".",".","_","_",".",".",".",".",".",".",".",".",".",".",".",".",".",".",".",4,4,4,4,4,4,4,4,4,4,4,4]],[[".",".",".",".",".",".",".",".",".",".",".",".",".",".","_"],[".",".",4,".",".",".",".",".",".",".",".",".",".",".","_"],[".",".",".",".",".",".",".",".",".",".",".",".",".",".","_"],[".",2,".",2,2,4,4,4,4,4,4,4,4,4,"_"]],[[".",".",".",".",".","_","_","_","_","_","_","_","_","_","_"],[4,3,".",".",".","_","_","_","_","_","_","_","_","_","_"],[".",".",6,4,3,"_","_","_","_","_","_","_","_","_","_"],[".",".",".",".",".","_","_","_","_","_","_","_","_","_","_"]],[[".",".",".",".",".",".",".",".",".",".",".",".",".",".",".",".",".",".",".",".",".",".",".","."],[".",".",".",".",".",".",".",".",".",".",".",".",".",".",".",".",".",".",".",".",".",".",".","."],[4,4,".",".",".",".",".",".",".",".",".",".",4,4,".",".",".",".",".",".",".",".",".","."],[".",".",4,4,2,2,2,2,2,2,2,2,".",".",4,4,2,2,2,2,2,2,2,2]],[[".",".",".",".","_","_",".",".",".",".",".",".",".",".",".",".",".",".",".",".",".",".",".",".","."],[".",".",".",".","_","_",".",".",".",".",".",".",".",".",".",".",".",".",".",".",".",".",".",".",6],[4,4,4,4,"_","_",".",".",".",".",1,1,1,".",".",".",".",".",".",".",".",".",".",".","."],[".",".",".",".","_","_",1,1,1,1,".",".",".",4,4,4,2,"v","v","v","v",2,2,4,"."]]],"numberofstrings":4,"notes":["G","D","A","E"],"capo":0,"stringnotes":["G2","D2","A1","E1"],"comments":["Stave 1: Verse: Play 2x","Stave 2:Chorus Play 2x","Stave 3:Chorus Pt. 2 ","Stave 4:Chorus End - Go To Verse 1st time, to Act 1 Outro second time","Act 1 outro. Play Verse line 1x then play:"],"timing":[[null,null,null,null,null,null,null,null,null,null,null,null,null,null,null,null,null,null,null,null,null,null,null,null,null,null,null,null,null,null,null,null,null,null,null,null,null,null,null],[null,null,null,null,null,null,null,null,null,null,null,null,null,null,null,null,null,null,null,null],[null,null,null,null,null],[null,null,null,null,null,null,null,null,null,null,null,null,null,null,null,null,null,null,null,null,null,null,null,null],[null,null,null,null,null,null,null,null,null,null,null,null,null,null,null,null,null,null,null,null,null,null,null,null,null]],"timingvisible":false,"tabcounter":25,"stave":4,"totalstaves":5,"instrument":"4bass","selectedtuning":"4bass","version":"13"}

Member for

1 week 5 days
Submitted by LizzyTheFloyd831 on Fri, 2020-11-20 22:38