Sound will begin in 5 seconds

VICTORS PART FOR VLAD

Chords
01234567891011121314151617181920212223
E
B
G
D
A
E
B
0 1 2 3 4 5 6 7 8 9 10 11 12 13 14 15 16 17 18 19 20 21 22 23
(/) Slide Up  (\) Slide Down  (h) Hammer On  (p) Pull Off  (b) Bend (r) Release (v) Vibrato

INTRO: USE WAMMY TO MAKE IT SURFY AS FUCK

E|--5-----5-----5-----0--
B|--5-----5-----5-----0--
G|--5-----5-----5-----1--
D|--5--6--5--6--5--6--2--
A|--7-----7-----7-----2--
E|--5-----5-----5-----0--

4 BARS AFTER THE INTRO THIS IS GOING TO BE OVER EVERYTHING

E|-------------------------
B|-------------------------
G|-------------------------
D|--7--7--7--10--10--9--7--
A|-------------------------
E|-------------------------

THIS IS THE MAIN 2ND GUITAR LICK ITS IN THE OG RECORDING

E|-----------------------------------------------------------------------------------------------
B|-----------------------------------------------------------------------------------------------
G|-----------------------------------------------------------------------------------------------
D|--14--14--14--12--10--10--14--14--14--12--10--12--10--9--15--15--15--14--12--14--12--10--7--7--
A|-----------------------------------------------------------------------------------------------
E|-----------------------------------------------------------------------------------------------

THIS IS CONTINUING THE LICK

E|-----------------------------------------
B|-----------------------------------------
G|-----------------------------------------
D|--14--14--14--12--10--12--10--12--10--9--
A|-----------------------------------------
E|-----------------------------------------

THIS IS THE B SECTION. LISTEN TO RECORDING I SENT U TO GET AN IDEA

E|--13--12--12--12--10--0--
B|--13--12--13--13--10--0--
G|--14--12--14--14--10--1--
D|--12--10--15--14--9---2--
A|----------------------2--
E|----------------------0--

ENDING I THINK THIS IS CORRECT IM WRITING THIS FROM MEMORY YOU'LL BE ABLE TO HEAR EVERYTHING

E|--------------17--16--13--12--10--
B|----------------------------------
G|----------------------------------
D|--14--12--10----------------------
A|----------------------------------
E|----------------------------------

http://www.guitartabcreator.com
Guitar Tab Creator is intended to store guitar tab created through the tool. It currently does not support in-line text editing. Any text you place in here will be lost. If you need to comment on your tab, please use the "Tab Notes" section located below.