Sound will begin in 5 seconds

Blues

Chords
01234567891011121314151617181920212223
E
B
G
D
A
E
B
0 1 2 3 4 5 6 7 8 9 10 11 12 13 14 15 16 17 18 19 20 21 22 23
(/) Slide Up  (\) Slide Down  (h) Hammer On  (p) Pull Off  (b) Bend (r) Release (v) Vibrato

Stave 1:

E|----------------
B|-----1-3--3--3--
G|-----2-4--4--4--
D|----------------
A|----------------
E|-------0--------

Stave 2:

E|-----0-----------------0-------0-----
B|--------------------------3b4-----0--
G|--------2h3p2p0----------------------
D|-----------------2-------------------
A|-------------------------------------
E|--0-----0-----------0-----0----------

http://www.guitartabcreator.com
Guitar Tab Creator is intended to store guitar tab created through the tool. It currently does not support in-line text editing. Any text you place in here will be lost. If you need to comment on your tab, please use the "Tab Notes" section located below.