Sound will begin in 5 seconds

Prag

Chords
01234567891011121314151617181920212223
E
B
G
D
A
E
B
0 1 2 3 4 5 6 7 8 9 10 11 12 13 14 15 16 17 18 19 20 21 22 23
Song Science #1: How Pros Use 6 Chords to Write Hit Songs
(/) Slide Up  (\) Slide Down  (h) Hammer On  (p) Pull Off  (b) Bend (r) Release (v) Vibrato

Stave 1:

E|--------6--6--6-----------6--6--6-----8-----6-----------6--------------6--------
B|--------6--6--6-----8-----------------------------------6--------------6-----6--
G|--------------------------8--8--8-----------------------------------------------
D|--------------------------------------------------------------------------------
A|--6-----------------------------------------------6-----------6--5--------------
E|-----------------------8--------------------------------------------------------

Stave 2:

E|--------3--3--3-----------------------------------------------------------------------
B|--------4--4--4-----------------4--4--4-----3-----4-----------4--4--4-----6--6-----4--
G|--------------------5-----------5--5--5-----------------------3--3--3-----5-----------
D|--------------------------------------------------------------------------------------
A|--3-----------------------------------------------------------------------------------
E|--------------------------6-----------------------------3-----------------5-----------

Stave 3:

E|--------------------3--------------------------------------3--------------
B|--1-----------1-----------1-----------0--------------0-----------0--------
G|--------0-----------------------0--------------0-----------------------0--
D|--------------------------------------------------------------------------
A|--------------------------------------------------------------------------
E|--1-----------------------------------0-----------------------------------

Stave 4:

E|-----------------------1--------------------------------------1--------------
B|--1--------------1-----------1-----------3--------------3-----------3--------
G|-----------0-----------------------0--------------0-----------------------0--
D|-----------------------------------------------------------------------------
A|--0--------------------------------------2-----------------------------------
E|-----------------------------------------------------------------------------

Stave 5:

E|-----------1-----------------0--------
B|-----------1-----------------3--------
G|-----------------0-----------------0--
D|--------------------------------------
A|--3--------------------2--------------
E|--------------------------------------

http://www.guitartabcreator.com
Guitar Tab Creator is intended to store guitar tab created through the tool. It currently does not support in-line text editing. Any text you place in here will be lost. If you need to comment on your tab, please use the "Tab Notes" section located below.