Sound will begin in 5 seconds

Arctic Monkeys - Only Ones Who Knows

Chords
01234567891011121314151617181920212223
E
B
G
D
A
E
B
0 1 2 3 4 5 6 7 8 9 10 11 12 13 14 15 16 17 18 19 20 21 22 23
Song Science #1: How Pros Use 6 Chords to Write Hit Songs
(/) Slide Up  (\) Slide Down  (h) Hammer On  (p) Pull Off  (b) Bend (r) Release (v) Vibrato

Stave 1:

E|--1-----------3-----------5-----------5-----------8-----------5-----------
B|--1-----------5-----------6--------6--4-----3--6--6-----------3-----------
G|--2-----------6-----------7-----7-----------------7-----------3-----------
D|--3-----------5-----------7-----------5-----------0-----------5-----------
A|--3-----------4-----------5-----------3-----------------------5-----------
E|--1-----------------------------------------------6-----------3-----------

Stave 2:

E|--1-----------3-----------5-----------5-----------8-----------5-----------3-----------------------
B|--1-----------5-----------6-----------4-----------6-----------5-----------3-----------------------
G|--2-----------6-----------7-----------------------7-----------5-----------3-----------------------
D|--3-----------5-----------7-----------5-----------------------7-----------5-----------------------
A|--3-----------4-----------5-----------3-----------------------7-----------5-----------------------
E|--1-----------------------------------------------6-----------5-----------3-----------------------

Stave 3:

E|--1-----------6-----------5-----------10-----------3-----------9-----------------------------------
B|--3-----------6-----------5-----------10-----------3-----------6-----------------------------------
G|--3-----------6-----------5-----------11-----------3-----------6-----------------------------------
D|--3-----------8-----------5-----------10-----------5-----------------------------------------------
A|--1-----------8-----------0-----------12-----------5-----------8-----------------------------------
E|--------------6-----------------------10-----------3-----------6-----------------------------------

http://www.guitartabcreator.com
Guitar Tab Creator is intended to store guitar tab created through the tool. It currently does not support in-line text editing. Any text you place in here will be lost. If you need to comment on your tab, please use the "Tab Notes" section located below.