Sound will begin in 5 seconds

Square Hammer

Chords
01234567891011121314151617181920212223
E
B
G
D
A
E
B
0 1 2 3 4 5 6 7 8 9 10 11 12 13 14 15 16 17 18 19 20 21 22 23
(/) Slide Up  (\) Slide Down  (h) Hammer On  (p) Pull Off  (b) Bend (r) Release (v) Vibrato

Intro

D|-------------------------------
A|-------------------------------
F|-------------------------------
C|-------------------------------
G|-2-4-5---4-5---4-5---4-5-------
D|-------3-----2-----5-----5-----

x3 *PM*

D|-----------------------------------
A|-----------------------------------
F|-7-7-7-7-----------------5-5-5-5---
C|-7-7-7-7-8-8-8-8-7-7-7-7-5-5-5-5---
G|-5-5-5-5-8-8-8-8-7-7-7-7-3-3-3-3---
D|---------6-6-6-6-5-5-5-5-----------

Stave 3:

D|-------------------------------------------------------
A|-------------------------------------------------------
F|-------------------------------------------------------
C|-------------------------------------------------------
G|-2-4-5---4-5---4-5---4-5-------------------------------
D|-------3-----2-----5-----5-----------------------------

x3 *PM*

D|-----------------------------------
A|-----------------------------------
F|-7-7-7-7-----------------5-5-5-5---
C|-7-7-7-7-8-8-8-8-7-7-7-7-5-5-5-5---
G|-5-5-5-5-8-8-8-8-7-7-7-7-3-3-3-3---
D|---------6-6-6-6-5-5-5-5-----------

Stave 5:

D|---------------------------
A|---------------------------
F|---------------------------
C|---------------------------
G|-2-4-5---4-5---4-5---4-5---
D|-------3-----2-----5-----5-

http://www.guitartabcreator.com
Guitar Tab Creator is intended to store guitar tab created through the tool. It currently does not support in-line text editing. Any text you place in here will be lost. If you need to comment on your tab, please use the "Tab Notes" section located below.