Sound will begin in 5 seconds

Easy Nipple Access

Chords
01234567891011121314151617181920212223
E
B
G
D
A
E
B
0 1 2 3 4 5 6 7 8 9 10 11 12 13 14 15 16 17 18 19 20 21 22 23
Song Science #1: How Pros Use 6 Chords to Write Hit Songs
(/) Slide Up  (\) Slide Down  (h) Hammer On  (p) Pull Off  (b) Bend (r) Release (v) Vibrato

Stave 1:

D|-------------------------------------------------------------
A|-------------------------------------------------------------
F|-5-5-5---5--9--7--10--5--9--10--12--5--9--7--10--5--9--10--12-
C|-5-5-5---5--9--7--10--5--9--10--12--5--9--7--10--5--9--10--12-
G|-3-3-3---3--7--5--8---3--7--8---10--3--7--5--8---3--7--8---10-
C|-------------------------------------------------------------

Stave 2:

D|--------------------------------------------------------------------------------------
A|--------------------------------------------------------------------------------------
F|--------------------------------------------------------------------------------------
C|--10-10--10-10-10--10--10-10-10--10-9--10-10--10-10-10--10--10-10-10--5-5-5-5-7-7-7-7-
G|--10-10--10-10-10--10--10-10-10--10-9--10-10--10-10-10--10--10-10-10--5-5-5-5-7-7-7-7-
C|--10-10--10-10-10--10--10-10-10--10-9--10-10--10-10-10--10--10-10-10--5-5-5-5-7-7-7-7-

Stave 3:

D|-_-
A|-_-
F|-12-
C|-10-
G|-10-
C|-10-

http://www.guitartabcreator.com
Guitar Tab Creator is intended to store guitar tab created through the tool. It currently does not support in-line text editing. Any text you place in here will be lost. If you need to comment on your tab, please use the "Tab Notes" section located below.