Sound will begin in 5 seconds

The Lost Are Found

01234567891011121314151617181920212223
E
B
G
D
A
E
B
0 1 2 3 4 5 6 7 8 9 10 11 12 13 14 15 16 17 18 19 20 21 22 23
Song Science #1: How Pros Use 6 Chords to Write Hit Songs
(/) Slide Up  (\) Slide Down  (h) Hammer On  (p) Pull Off  (b) Bend (r) Release (v) Vibrato

Stave 1:

E|-----
B|-----
G|-----
D|-----
A|-7-9\
E|-----

Stave 2:

E|------
B|------
G|-9-11\
D|------
A|------
E|------

Stave 3:

E|--------------------------------------------
B|--------------------------------------------
G|--------------------------------------------
D|---7---7-----------------6---6--------------
A|--------------7---7----7---7------7\9-9-9-9-
E|-9---9------9---9---------------------------

Stave 4:

E|--------------------------------------
B|--------------------------------------
G|--------------------------------------
D|---7---7---------------11----11----11-
A|--------------7---7-------------------
E|-9---9------9---9---------------------

Stave 5:

E|------------------------------------------------------
B|----10----10-------------------9---9------------------
G|-------------------9----9----9---9------9\11-11-11-11-
D|-11----11-------11---11-------------------------------
A|------------------------------------------------------
E|------------------------------------------------------

Stave 6:

E|-------------------------------------------
B|-14-14-14-14-14-14-12-12-9-9-9-9-9\4-4-4-4-
G|-------------------------------------------
D|-------------------------------------------
A|-------------------------------------------
E|-------------------------------------------

Stave 7:

E|--------------------------------------------
B|----10----10-----------------14----14----14-
G|-------------------9----9-------------------
D|-11----11-------11---11---------------------
A|--------------------------------------------
E|--------------------------------------------

Stave 8:

E|-----------------------------------------
B|-----------------------------------------
G|-----------------------------------------
D|-11-11-11-11-11-11-9-9-6-6-6-6-6\1-1-1-1-
A|-----------------------------------------
E|-----------------------------------------

Stave 9:

E|-------------------------------------------
B|-------------------------------------------
G|-------------------------------------------
D|-11-11-11-11-11-11-11-11-6-6-6-6-6\1-1-1-1-
A|-------------------------------------------
E|-------------------------------------------

Stave 10:

E|-------------------------------------------
B|-14-14-14-14-14-14-14-14-9-9-9-9-9\4-4-4-4-
G|-------------------------------------------
D|-------------------------------------------
A|-------------------------------------------
E|-------------------------------------------

http://www.guitartabcreator.com
Guitar Tab Creator is intended to store guitar tab created through the tool. It currently does not support in-line text editing. Any text you place in here will be lost. If you need to comment on your tab, please use the "Tab Notes" section located below.