Sound will begin in 5 seconds

jazz licks #1

01234567891011121314151617181920212223
E
B
G
D
A
E
B
0 1 2 3 4 5 6 7 8 9 10 11 12 13 14 15 16 17 18 19 20 21 22 23
Song Science #1: How Pros Use 6 Chords to Write Hit Songs
(/) Slide Up  (\) Slide Down  (h) Hammer On  (p) Pull Off  (b) Bend (r) Release (v) Vibrato

Stave 1:

E|------------------------------------------
B|-----5-6----------------------------------
G|---7-------------7------------------------
D|-7--------7---6-----5-6-5-------------6-7-
A|--------------------------8-5-----8-5-----
E|------------------------------------------

Stave 2:

E|-5---8-5------------------------------
B|---------6---8-5---------5-6-8-5------
G|-----------7-----5-----7----------5-7-
D|-------------------7------------------
A|--------------------------------------
E|--------------------------------------

Stave 3:

E|-----------------12-15-12-------12-------------
B|--------------13-------------13----13----------
G|-----------14-------------------------14-------
D|-15--14-15-------------------------------15-14-
A|-----------------------------------------------
E|-----------------------------------------------

Stave 4:

E|-------------------8--5-------------
B|----------6-----8-----------6-----8-
G|-------5-----7-----------------7----
D|----5-------------------------------
A|-5----------------------------------
E|------------------------------------

Stave 5:

E|-8-8-7-6-5------------------------------------------------
B|------------8-7-6---5-------------------------------------
G|-----------------------5-4-----7-6-5--------4-------------
D|----------------------------7------------5-----7-5-4------
A|--------------------------------------7---------------5-3-
E|----------------------------------------------------------

Stave 6:

E|---------------------7-8-7-------7-8----
B|-----------------8---------9-10-------7-
G|------------7-9-------------------------
D|----7-9-10------------------------------
A|-7--------------------------------------
E|----------------------------------------

http://www.guitartabcreator.com
Guitar Tab Creator is intended to store guitar tab created through the tool. It currently does not support in-line text editing. Any text you place in here will be lost. If you need to comment on your tab, please use the "Tab Notes" section located below.