Sound will begin in 5 seconds

Band prototype (revised edition)

01234567891011121314151617181920212223
E
B
G
D
A
E
B
0 1 2 3 4 5 6 7 8 9 10 11 12 13 14 15 16 17 18 19 20 21 22 23
Song Science #1: How Pros Use 6 Chords to Write Hit Songs
(/) Slide Up  (\) Slide Down  (h) Hammer On  (p) Pull Off  (b) Bend (r) Release (v) Vibrato

Stave 1:

C |----------------------------------------------------------------------------------------------------
G |----------------------------------------------------------------------------------------------------
Eb|----------------------------------------------------------------------------------------------------
Bb|--8-7-0-3-5-0-------------8-7-0-3-5-0-------------------------------------------------------------0-
F |--8-7-0-3-5-0-------------8-7-0-3-5-0-------8-8-8-8-7-7-7-7-------10-10-10-10-7-7-7-7-----0-------0-
Bb|--8-7-0-3-5-0-0-0-0-0-0-0-8-7-0-3-5-0-0-0-0-----------------0-0-0---------------------0-0-0-0-0-0-0-

Stave 2:

C |------------------------------------------------------------------------------------------------------
G |------------------------------------------------------------------------------------------------------
Eb|------------------------------------------------------------------------------------------------------
Bb|--8-8-8-8-8-8-5-5-5-5-5-0-0-0-0-3-3-3-3-8-8-8-8-8-5-5-5-5-0-------0-0-------------------------0-0-----
F |--8-8-8-8-8-8-5-5-5-5-5-0-0-0-0-3-3-3-3-8-8-8-8-8-5-5-5-5-0-0-0-0-0-0-0-0-5-7-8-----------0-0-0-0-0---
Bb|--8-8-8-8-8-8-5-5-5-5-5-0-0-0-0-3-3-3-3-8-8-8-8-8-5-5-5-5-0-0-0-0-0-0-0-0-------0-5-8-7-0-0-0-0-0-0-2-

Stave 3:

C |------------------------------------------------------------------------------------------------
G |------------------------------------------------------------------------------------------------
Eb|------------------------------------------------------------------------------------------------
Bb|------0-0-0-0-0-0-0-0-----------------------0-0-0-0-0-0-------0---------------------------------
F |------0-0-0-0-0-0-0-0-0-0-0-0-0-0-0-0-0-----0-0-0-0-0-0-0-0-0-0-0-0-0-0-0-----8---7---8---7---5-
Bb|--2b0-0-0-0-0-0-0-0-0-1-1-1-1-1-1-1-1-1-2b1r0-0-0-0-0-0-0-0-0-0-0-0-0-0-0-0-0---0---0---0---0---

Stave 4:

C |-------------------------------------------------------------------------------------------------------
G |-------------------------------------------------------------------------------------------------------
Eb|---------------------------------------------------------------------10-10-10-10-10-9-9-9-9-9-12-12-12-
Bb|--8-8-8-7-7-7-5-5-5-5-3-3-3-5-5-5-0----------------------8-8-8-10-10-----------------------------------
F |--8-8-8-7-7-7-5-5-5-5-3-3-3-5-5-5-0-----8---7---8-10-7-8-8-8-8-10-10-8--8--8--8--8--7-7-7-7-7-10-10-10-
Bb|--8-8-8-7-7-7-5-5-5-5-3-3-3-5-5-5-0-0-0---0---0----------8-8-8-10-10-----------------------------------

Stave 5:

C |-----------------------------------------------------------
G |-----------------------------------------------------------
Eb|--12-12-12-14-14-14-10-10-10-10-12-12-12-13-13-13-14-14-14-
Bb|-----------------------------------------------------------
F |--10-10-10-12-12-12-8--8--8--8--10-10-10-11-11-11-12-12-12-
Bb|-----------------------------------------------------------

Stave 6:

C |-----------------------------------------------------------------------------
G |-----------------------------------------------------------------------------
Eb|-12-12-12-12-----------------------------------------------------------------
Bb|-------------------------------------------------8-7-0-3-5-0-----------------
F |-10-10-10-10-------------------------------------8-7-0-3-5-0-----------------
Bb|-------------0-0-0-0-0-0-0-0-0-0-0-0-0-0-0-0-0-0-8-7-0-3-5-0-0-0-0-0-0-0-2b0-

http://www.guitartabcreator.com
Guitar Tab Creator is intended to store guitar tab created through the tool. It currently does not support in-line text editing. Any text you place in here will be lost. If you need to comment on your tab, please use the "Tab Notes" section located below.