Sound will begin in 5 seconds

Mandosecret garden

01234567891011121314151617181920212223
E
B
G
D
A
E
B
0 1 2 3 4 5 6 7 8 9 10 11 12 13 14 15 16 17 18 19 20 21 22 23
Song Science #1: How Pros Use 6 Chords to Write Hit Songs
(/) Slide Up  (\) Slide Down  (h) Hammer On  (p) Pull Off  (b) Bend (r) Release (v) Vibrato

Stave 1:

E|--------------------------------------------------------------------
A|--0--3--5--5--7--0--0--3--5--5--7--3--0--0--3--0--------------------
D|--------------------------------------------------3--5--2--------0--
G|-----------------------------------------------------------5--2-----

Stave 2:

E|--------------------------------------------------------------------------------------------
A|--0--3--5--5--7--0--0--3--5--5--7--0--0--3--0--------------------0--3--5--5--7--0--0--3--5--
D|-----------------------------------------------3--5--2--------0-----------------------------
G|--------------------------------------------------------5--2--------------------------------

Stave 3:

E|--------------------------------------------------------0-----0--1-----1--0--------------
A|--5--7--3--0--0--3--0-----------------------------0--5-----0--------0--------5--1--3--0--
D|-----------------------3--5--2--------0--0-----0-----------------------------------------
G|--------------------------------5--2--------5--------------------------------------------

Stave 4:

E|--------0-----3--1-----1--0-----------------------------------------------------
A|--0--5-----0--------0--------5--1--3--0--0--3--5--5--7--0--0--3--5--5--7--3--0--
D|--------------------------------------------------------------------------------
G|--------------------------------------------------------------------------------

Stave 5:

E|-----------------------------------------------------------------------------------------------
A|--0--3--0--------------------0--3--5--5--7--0--0--3--5--5--7--3--0--0--3--0--------------------
D|-----------3--5--2--------0--------------------------------------------------3--5--2--------0--
G|--------------------5--2--------------------------------------------------------------5--2-----

Stave 6:

E|-----------------0-----0--1-----1--0--------------------------0-----0--1--3--1--3--1--0--1--
A|-----------0--5-----0--------0--------5--1--3--0--0--5--0--5-----0--------------------------
D|--0-----0-----------------------------------------------------------------------------------
G|-----5--------------------------------------------------------------------------------------

Stave 7:

E|-----1--0-----------------------------------------------------------------------------------------
A|--0--------5--1--3--0--0-----0--0--3--5--5--7--0--0--3--5--5--7--3--0--0--3--0--------------------
D|--------------------------5-----------------------------------------------------3--5--2--------0--
G|-----------------------------------------------------------------------------------------5--2-----

Stave 8:

E|-----------
A|-----------
D|--0-----0--
G|-----5-----

http://www.guitartabcreator.com
Guitar Tab Creator is intended to store guitar tab created through the tool. It currently does not support in-line text editing. Any text you place in here will be lost. If you need to comment on your tab, please use the "Tab Notes" section located below.