Sound will begin in 5 seconds

Mandoschindler_long

01234567891011121314151617181920212223
E
B
G
D
A
E
B
0 1 2 3 4 5 6 7 8 9 10 11 12 13 14 15 16 17 18 19 20 21 22 23
Song Science #1: How Pros Use 6 Chords to Write Hit Songs
(/) Slide Up  (\) Slide Down  (h) Hammer On  (p) Pull Off  (b) Bend (r) Release (v) Vibrato

Stave 1:

E|--------------------------------------------------------------------------------------------
A|-----0-----0-----1--0--------------------0--0-----0-----3--1--0-----------------1--0--------
D|--------0-----0--------3-----3-----3--5--------0-----0-----------5--------2--5--------5--3--
G|--2-----------------------2-----0-----------------------------------5--3--------------------

Stave 2:

E|--------------------------------------------------------------------------------------
A|--------------0-----------0-----------------0--------------------------0--------------
D|--5-----5--------5--3--5--------5-----5--------5--3--2--0--2--3-----------5--3--2--0--
G|-----3-----3-----------------2-----3-----3-----------------------0--0-----------------

Stave 3:

E|-----5-----5-----6--5--1-----1-----1--3--5--5-----5-----8--6--5--3--------0--3--
A|--0-----5-----5-----------0--------------------5-----5--------------3--1--------
D|--------------------------------5-----------------------------------------------
G|--------------------------------------------------------------------------------

Stave 4:

E|--6--5--3--1--3-----3-----5--3--1--3--5-----3-----3-----5--3--1--0-----0--1-----1-----5--3--1--0-----
A|-----------------1-----1-----------------0-----1-----1--------------5-----------------------------5--
D|-----------------------------------------------------------------------------5-----5-----------------
G|-----------------------------------------------------------------------------------------------------

Stave 5:

E|--------------------------------------3--0-----------------------------------0--
A|--------------------------------0--5--------5--1--------------------------------
D|-----------0--------------0--3--------------------5--2--0-----5-----5--3--2-----
G|--3--2--0-----0--2--0--2-----------------------------------3-----3--------------

Stave 6:

E|--0-----1--0--------------------------------0-----3--1--------------------------------------
A|-----5--------2--3--5--3--5--2--0-----2--0-----5--------2--3--5-----------------0--2--3--6--
D|-----------------------------------6-----------------------------0--2--3--3--5--------------
G|--------------------------------------------------------------------------------------------

Stave 7:

E|--0-----0-----1--0--------------------0--0-----0-----3--1--0-----------------1--0--------
A|-----0-----0--------3-----3-----3--5--------0-----0-----------5--------2--5--------5--3--
D|-----------------------2-----0-----------------------------------5--3--------------------
G|-----------------------------------------------------------------------------------------

Stave 8:

E|--------------0-----------0--------------0-----------------------------------------0--------------
A|--5-----5--------5--3--5-----5-----5--------5--3--2--0--2--3--2--0--2--3-----3--------5--3--2--0--
D|-----3-----3--------------------3-----3-----------------------------------0-----0-----------------
G|--------------------------------------------------------------------------------------------------

http://www.guitartabcreator.com
Guitar Tab Creator is intended to store guitar tab created through the tool. It currently does not support in-line text editing. Any text you place in here will be lost. If you need to comment on your tab, please use the "Tab Notes" section located below.