Sound will begin in 5 seconds

Mandopiscatorepusilleco

01234567891011121314151617181920212223
E
B
G
D
A
E
B
0 1 2 3 4 5 6 7 8 9 10 11 12 13 14 15 16 17 18 19 20 21 22 23
Song Science #1: How Pros Use 6 Chords to Write Hit Songs
(/) Slide Up  (\) Slide Down  (h) Hammer On  (p) Pull Off  (b) Bend (r) Release (v) Vibrato

Stave 1:

E|--7--7--7--7--7--7--7--7--7--3--3--3--------0--2--3--5--3--2--0-----------------------------
A|--------------------------------------3--5--------------------------------------0-----------
D|--------------------------------------------------------------------0--2--4--5-----5--4--2--
G|-----------------------------------------------------------------5--------------------------

Stave 2:

E|--7--8--7--8--7--5--3--5--3--2--5--7--5--7--5--3--2--3--2--0--7--8--10--12--10--8--7--
A|--------------------------------------------------------------------------------------
D|--------------------------------------------------------------------------------------
G|--------------------------------------------------------------------------------------

Stave 3:

E|--------------------------4--0--2--5--4--7--7--4--5--9--8--11--12--13--12--13--11--12--11--12--11--9--
A|--2--4--6--4--2--------2------------------------------------------------------------------------------
D|-----------------6--4---------------------------------------------------------------------------------
G|------------------------------------------------------------------------------------------------------

Stave 4:

E|--------------------------------------7--7--7--7--7--7--7--7--7--3--3--3--------0--2--3--5--
A|--6--7--2-----------------------------------------------------------------3--5--------------
D|-----------6--2--7--6--6--7--6--4--2--------------------------------------------------------
G|--------------------------------------------------------------------------------------------

Stave 5:

E|--3--2--0-----------------------------------------------------------------------------------------
A|--------------------------0-----------2--3--2--3--2--0--------------0--2--0--2--0-----------------
D|--------------0--2--4--5-----5--4--2--------------------5--7--5--4-----------------5--4--5--4--2--
G|-----------5--------------------------------------------------------------------------------------

Stave 6:

E|-----------0-----------------------------------------------------------------------0--2--0--2--
A|--2--3--5-----5--3--2--2--4--6--4--2--------2-----------------2--2-----0--4--3--6--------------
D|--------------------------------------6--4-----6--2--4--7--6--------6--------------------------
G|-----------------------------------------------------------------------------------------------

Stave 7:

E|-----------------------------------------------------
A|--6--7--6--7--6--4--6--7--2--------0-----------------
D|-----------------------------6--2-----6--7--6--4--2--
G|-----------------------------------------------------

Stave 8:

E|--------------------------------------
A|-----------------2--2-----0--4--2--7--
D|--6--2--4--7--6--------6--------------
G|--------------------------------------

http://www.guitartabcreator.com
Guitar Tab Creator is intended to store guitar tab created through the tool. It currently does not support in-line text editing. Any text you place in here will be lost. If you need to comment on your tab, please use the "Tab Notes" section located below.