Sound will begin in 5 seconds

Mando_lovestory

01234567891011121314151617181920212223
E
B
G
D
A
E
B
0 1 2 3 4 5 6 7 8 9 10 11 12 13 14 15 16 17 18 19 20 21 22 23
Song Science #1: How Pros Use 6 Chords to Write Hit Songs
(/) Slide Up  (\) Slide Down  (h) Hammer On  (p) Pull Off  (b) Bend (r) Release (v) Vibrato

Stave 1:

E|-----------------------------------------------------------------------------------------
A|--6--------6--6--------6--6--------------------5--5--------5--5--------------------3--3--
D|-----5--5--------5--5--------5--6--5--3--3--3--------3--3--------3--5--3--1--1--1--------
G|-----------------------------------------------------------------------------------------

Stave 2:

E|-----------------------------------------------------------------------------------------------
A|--------3--3--------------------2--2--3--5--------6--------6--6--------6--6--------------------
D|--1--1--------1--3--1--0--0--0--------------6--5-----5--5--------5--5--------5--6--5--3--3--3--
G|-----------------------------------------------------------------------------------------------

Stave 3:

E|-----------------------------------------------------------------------------------------0--
A|--5--5--------5--5--------------------3--3--------3--3--------------------2--2--3--5--2-----
D|--------3--3--------3--5--3--1--1--1--------1--1--------1--3--1--0--0--0--------------------
G|--------------------------------------------------------------------------------------------

Stave 4:

E|--1--3-----4-----4--------------1--4--1--3-----3-----------------3--------------------
A|--------3-----3-----3--3--5--5--------------1-----1--1--3--3--6-----6--8--5--8--5--6--
D|--------------------------------------------------------------------------------------
G|--------------------------------------------------------------------------------------

Stave 5:

E|---------------3--4-----------------------------------------------------------------------7--
A|--8--10--3--6--------1--3--6--6--5--6--8--------------1--5--3--3--1-----------0--3--0--2-----
D|------------------------------------------6--5--5--6-----------------6--5--4-----------------
G|---------------------------------------------------------------------------------------------

Stave 6:

E|--------------
A|--3--5--2--3--
D|--------------
G|--------------

Stave 7:

E|--
A|--
D|--
G|--

Stave 8:

E|--
A|--
D|--
G|--

http://www.guitartabcreator.com
Guitar Tab Creator is intended to store guitar tab created through the tool. It currently does not support in-line text editing. Any text you place in here will be lost. If you need to comment on your tab, please use the "Tab Notes" section located below.