Sound will begin in 5 seconds

Mandoghoghaye

01234567891011121314151617181920212223
E
B
G
D
A
E
B
0 1 2 3 4 5 6 7 8 9 10 11 12 13 14 15 16 17 18 19 20 21 22 23
Song Science #1: How Pros Use 6 Chords to Write Hit Songs
(/) Slide Up  (\) Slide Down  (h) Hammer On  (p) Pull Off  (b) Bend (r) Release (v) Vibrato

Stave 1:

E|--------------------------------------------------------------------------------------------------------------
A|--1--2--4--2--4--2--4--1--1--2--4--2--4--2--4--1--1--2--4--6--9--8--6--4--2--1--1--2--4--6--9--8--6--4--2--1--
D|--------------------------------------------------------------------------------------------------------------
G|--------------------------------------------------------------------------------------------------------------

Stave 2:

E|--------------------------------------------------------------------4--6--2--1-----1-----1-----------2--4--
A|--1--2--4--2--4--6--2--1--1--2--4--2--4--6--2--1--1--2--4--6--8--9--------------6-----6-----4--6--8--------
D|-----------------------------------------------------------------------------------------------------------
G|-----------------------------------------------------------------------------------------------------------

Stave 3:

E|--1--------------------------------------------------------------------------------------------
A|-----6--4--6--4--2--4--2--1--6--4--2--4--2--1--1--2--4--2--4--6--2--1--1--2--4--2--4--6--2--1--
D|-----------------------------------------------------------------------------------------------
G|-----------------------------------------------------------------------------------------------

Stave 4:

E|--------------------------------------------------------------------------------------------------------------
A|--1--2--4--2--4--2--4--1--1--2--4--2--4--2--4--1--1--2--4--6--9--8--6--4--2--1--1--2--4--6--9--8--6--4--2--1--
D|--------------------------------------------------------------------------------------------------------------
G|--------------------------------------------------------------------------------------------------------------

Stave 5:

E|--------------------------------------------------
A|--1--2--4--2--4--6--2--1--1--2--4--2--4--6--2--1--
D|--------------------------------------------------
G|--------------------------------------------------

Stave 6:

E|-----2--2--2-----1--1--1-----------------1--1--1--------------------------------
A|--1-----------1-----------1--6--6--6--1-----------1--6--6--6--1--4--4--4--2--1--
D|--------------------------------------------------------------------------------
G|--------------------------------------------------------------------------------

Stave 7:

E|--------------------------------------------------------------------------------------------------------
A|--1--2--4--2--4--6--2--1--1--2--4--6--8--9--6--8--9--6--8--9--8--9--8--6--4--6--8--8--4--6--8--4--6--8--
D|--------------------------------------------------------------------------------------------------------
G|--------------------------------------------------------------------------------------------------------

Stave 8:

E|--------------------------------------------------------------------------------------------------------
A|--6--8--6--4--6--4--2--4--2--1--6--8--6--4--6--4--6--4--2--4--2--1--1--2--4--2--4--6--2--1--1--2--4--2--
D|--------------------------------------------------------------------------------------------------------
G|--------------------------------------------------------------------------------------------------------

Stave 9:

E|-----------------1--2--1--4--1--4--2--1-----------------1--------------------------------------------
A|--4--6--2--1--6--------------------------6--4--6--4--6-----6--9--6--9--8--6--4--2--4--8--6--4--2--1--
D|-----------------------------------------------------------------------------------------------------
G|-----------------------------------------------------------------------------------------------------

Stave 10:

E|-----------------2--1--2--1--2--4--6--2--1--------------------------2--4--1--------------------------
A|--8--6--4--2--1-----------------------------6--8--6--8--6--4--6--8-----------6--4--6--4--2--4--2--1--
D|-----------------------------------------------------------------------------------------------------
G|-----------------------------------------------------------------------------------------------------

Stave 11:

E|--------------------2--1--2--1--2--4--6--2--1--------------------------2--4--1--------
A|--6--4--2--4--2--1-----------------------------6--8--6--8--6--4--6--8-----------6--4--
D|--------------------------------------------------------------------------------------
G|--------------------------------------------------------------------------------------

Stave 12:

E|--------------------------------------------------------------------------------------
A|--6--4--2--4--2--1--6--4--2--4--2--1--1--2--4--2--4--6--2--1--1--2--4--2--4--6--2--1--
D|--------------------------------------------------------------------------------------
G|--------------------------------------------------------------------------------------

Stave 13:

E|--2--2--2--6--4--7--7--2--6--6--1--4--4--------------------------------------------------------------
A|-----------------------------------------6--9--9--6--4--1--1--2--4--2--4--6--2--1--1--2--4--2--4--6--
D|-----------------------------------------------------------------------------------------------------
G|-----------------------------------------------------------------------------------------------------

Stave 14:

E|--------------------------------------------------------------------------------------
A|--2--1--1--2--4--2--4--2--4--1--1--2--4--2--4--2--4--1--1--2--4--6--9--8--6--4--2--1--
D|--------------------------------------------------------------------------------------
G|--------------------------------------------------------------------------------------

Stave 15:

E|--------------------------------------------------------------------------------------------------
A|--1--2--4--6--9--8--6--4--2--1--1--2--4--2--4--6--2--1--1--2--4--2--4--6--2--1--1--2--4--2--4--6--
D|--------------------------------------------------------------------------------------------------
G|--------------------------------------------------------------------------------------------------

Stave 16:

E|--------------------------------
A|--2--1--1--2--4--2--4--6--2--1--
D|--------------------------------
G|--------------------------------

http://www.guitartabcreator.com
Guitar Tab Creator is intended to store guitar tab created through the tool. It currently does not support in-line text editing. Any text you place in here will be lost. If you need to comment on your tab, please use the "Tab Notes" section located below.