Sound will begin in 5 seconds

Dicitencello vuie

01234567891011121314151617181920212223
E
B
G
D
A
E
B
0 1 2 3 4 5 6 7 8 9 10 11 12 13 14 15 16 17 18 19 20 21 22 23
Song Science #1: How Pros Use 6 Chords to Write Hit Songs
(/) Slide Up  (\) Slide Down  (h) Hammer On  (p) Pull Off  (b) Bend (r) Release (v) Vibrato

Stave 1:

E|--------------------------------------------------------------------------------------------------
A|--3--5--6--5--3--2--3--5--3--------2--3--5--3--2-----2--5--3--------3--5--6--6--5--5--6--5--3--2--
D|-----------------------------6--6-----------------6-----------5--5--------------------------------
G|--------------------------------------------------------------------------------------------------

Stave 2:

E|--------------------------------------------------------3--3--1--1-----------------------------------
A|--5--3--3--4--3--1--3--1-----------1--------------3--6--------------6--5--3--5--6--6--3--6--3--6--3--
D|--------------------------6--6--6-----6--5--4--5-----------------------------------------------------
G|-----------------------------------------------------------------------------------------------------

Stave 3:

E|-----------------------------------3--3--1--1--------------------------------------------------------
A|--------2--5--2--5--2--------3--6--------------6--5--3--5--6--6--3--6--3--6--3--6--5--5--5--6--5--3--
D|--6--6-----------------5--5--------------------------------------------------------------------------
G|-----------------------------------------------------------------------------------------------------

Stave 4:

E|-----------------
A|--2--5--6--5--3--
D|-----------------
G|-----------------

Stave 5:

E|--------3--1--4--6--8--3--1--3--1-----------------------------
A|--3--6-----------------------------6--5--6--4--6--4--3--2--3--
D|--------------------------------------------------------------
G|--------------------------------------------------------------

Stave 6:

E|--
A|--
D|--
G|--

http://www.guitartabcreator.com
Guitar Tab Creator is intended to store guitar tab created through the tool. It currently does not support in-line text editing. Any text you place in here will be lost. If you need to comment on your tab, please use the "Tab Notes" section located below.