Ember Sundown - Lethal Point - Guitar Tabs (Drop D)

01234567891011121314151617181920212223
E
B
G
D
A
E
B
0 1 2 3 4 5 6 7 8 9 10 11 12 13 14 15 16 17 18 19 20 21 22 23
(/) Slide Up  (\) Slide Down  (h) Hammer On  (p) Pull Off  (b) Bend (r) Release (v) Vibrato

Intro: (x2)

E|--7---10--3--0--
B|--8---12--5--3--
G|--9---12--5--5--
D|--10--10--3--0--
A|--7---10--3--0--
D|--7---10--3--0--

Verse: (x2)

E|--7---5--3--0--
B|--8---8--5--3--
G|--9---7--5--5--
D|--10--5--3--0--
A|--7---5--3--0--
D|--7---5--3--0--

Prechorus: (x2)

E|---------------
B|---------------
G|--5--7--9--12--
D|--5--7--9--12--
A|--3--5--7--10--
D|--3--5--7--10--

Chorus: (x2)

E|--7---10--3--0--
B|--8---12--5--3--
G|--9---12--5--5--
D|--10--10--3--0--
A|--7---10--3--0--
D|--7---10--3--0--

Verse 2: (x2)

E|--7---5--3--0--
B|--8---8--5--3--
G|--9---7--5--5--
D|--10--5--3--0--
A|--7---5--3--0--
D|--7---5--3--0--

Chorus 2: (x2)

E|--7---10--3--0--
B|--8---12--5--3--
G|--9---12--5--5--
D|--10--10--3--0--
A|--7---10--3--0--
D|--7---10--3--0--

Bridge: (x4)

E|--3-----7---10--
B|--5-----8---12--
G|--5--7--9---12--
D|--3--5--10--10--
A|--3--5--7---10--
D|--3--5--7---10--

Final Chorus: (x4)

E|--7---10--3--0--
B|--8---12--5--3--
G|--9---12--5--5--
D|--10--10--3--0--
A|--7---10--3--0--
D|--7---10--3--0--

End:

E|--7---
B|--8---
G|--9---
D|--10--
A|--7---
D|--7---

							http://www.guitartabcreator.com
Chords

Tab Notes
Ember Sundown - Lethal Point - Guitar Tabs (Drop D)
Instruments
{"strings":[[[7,10,3,0],[8,12,5,3],[9,12,5,5],[10,10,3,0],[7,10,3,0],[7,10,3,0]],[[7,5,3,0],[8,8,5,3],[9,7,5,5],[10,5,3,0],[7,5,3,0],[7,5,3,0]],[[".",".",".","."],[".",".",".","."],[5,7,9,12],[5,7,9,12],[3,5,7,10],[3,5,7,10]],[[7,10,3,0],[8,12,5,3],[9,12,5,5],[10,10,3,0],[7,10,3,0],[7,10,3,0]],[[7,5,3,0],[8,8,5,3],[9,7,5,5],[10,5,3,0],[7,5,3,0],[7,5,3,0]],[[7,10,3,0],[8,12,5,3],[9,12,5,5],[10,10,3,0],[7,10,3,0],[7,10,3,0]],[[3,".",7,10],[5,".",8,12],[5,7,9,12],[3,5,10,10],[3,5,7,10],[3,5,7,10]],[[7,10,3,0],[8,12,5,3],[9,12,5,5],[10,10,3,0],[7,10,3,0],[7,10,3,0]],[[7],[8],[9],[10],[7],[7]]],"numberofstrings":6,"notes":["E","B","G","D","A","D"],"capo":0,"stringnotes":["E3","B2","G2","D2","A1","D1"],"comments":["Intro: (x2)","Verse: (x2)","Prechorus: (x2)","Chorus: (x2)","Verse 2: (x2)","Chorus 2: (x2)","Bridge: (x4)","Final Chorus: (x4)","End:"],"timing":[["W","W","W","W"],["W","W","W","W","W","W","W","W"],["W","W","W","W"],["W","W","W","W"],["W","W","W","W"],["W","W","W","W"],["W","W","W","W"],["W","W","W","W"],["W"]],"timingvisible":false,"tabcounter":-4,"stave":1,"totalstaves":9,"instrument":"6guitar","selectedtuning":"Drop D","version":"13"}

Member for

1 month 2 weeks
About Me
Guitar player singer songwriter
Submitted by lex.vidal on Thu, 2021-01-21 12:18