Sound will begin in 5 seconds

F#m Chord Progression Triad Practice

Chords
01234567891011121314151617181920212223
E
B
G
D
A
E
B
0 1 2 3 4 5 6 7 8 9 10 11 12 13 14 15 16 17 18 19 20 21 22 23
(/) Slide Up  (\) Slide Down  (h) Hammer On  (p) Pull Off  (b) Bend (r) Release (v) Vibrato

Stave 1:

E|--5--10--12--------0------------2--2--4-----------------
B|--7--12--14-----3--2------------2--3--5-----10--15--17--
G|--6--11--13--2--4--1--2--7--9---2--4--6-----11--16--18--
D|-------------4--4-----4--9--11--4--4--6-----11--16--18--
A|-------------4--------4--9--11--2--2--4-----------------
E|--------------------------------2-----------------------

Stave 2:

E|-----------------------
B|-----------------------
G|-------------9--11-----
D|--9--11--12------------
A|-----------------------
E|-----------------------

Stave 3:

E|-----------------
B|-----------------
G|-----------2--4--
D|--2--4--5--------
A|-----------------
E|-----------------

Stave 4:

E|-----------------
B|-----------------
G|-----------4--6--
D|--4--6--7--------
A|-----------------
E|-----------------

http://www.guitartabcreator.com
Guitar Tab Creator is intended to store guitar tab created through the tool. It currently does not support in-line text editing. Any text you place in here will be lost. If you need to comment on your tab, please use the "Tab Notes" section located below.