Sound will begin in 5 seconds

Em Am Bmaj Chord Progression/Scale Excercise

Chords
01234567891011121314151617181920212223
E
B
G
D
A
E
B
0 1 2 3 4 5 6 7 8 9 10 11 12 13 14 15 16 17 18 19 20 21 22 23
(/) Slide Up  (\) Slide Down  (h) Hammer On  (p) Pull Off  (b) Bend (r) Release (v) Vibrato

Stave 1:

E|-----7--------5--------7-----
B|-----8--------5--------7-----
G|-----9--------5--------8-----
D|-----9--------7--------9-----
A|-----7--------7--------9-----
E|--0--0-----5--5-----7--7-----

Stave 2:

E|------------------------------------------------------------------------------------------------
B|--13p12-----------------------------------------------------------------------------------------
G|---------14--12---------------------------------------------------------------------14--16--17--
D|-----------------14-----------------------------------------12--14--15--14--15--17--------------
A|------------------------------------12--14--15--12--14--15--------------------------------------
E|------------------------12--14--15--------------------------------------------------------------

Stave 3:

E|--------------------------16--18--19--19--20--20b22--17--19b20--15------
B|--------------16--17--19--------------------------------------------17--
G|--15--16--18------------------------------------------------------------
D|------------------------------------------------------------------------
A|------------------------------------------------------------------------
E|------------------------------------------------------------------------

Stave 4:

E|--------------------------------------------------------------------------------------------------
B|--------------------------------------------------------------------------------------------------
G|--16--14----------16--14--------------------------------------------------------------------------
D|----------15--14----------15--14--15--14----------15--14----------14--13----------14--13----------
A|------------------------------------------15--14----------15--14----------14--13----------14--13--
E|--------------------------------------------------------------------------------------------------

Stave 5:

E|-----------------------------------------------------------------------------------------------------
B|-----------------------------------------------------------------------------------------------------
G|-----------------------------------------------------------------------------------------------------
D|----------13--14--13--------------13--14--13-----------------11--13--11--------------11--13--11------
A|--13--14--------------14--13--14--------------14-----11--13--------------13--11--13--------------13--
E|-----------------------------------------------------------------------------------------------------

Stave 6:

E|-----------------------------------------------
B|-----------------------------------------------
G|-----------------------------------------------
D|--12--10--------------------------------9------
A|----------12--10-----------------9---------10--
E|------------------12--10--8--10-----10---------

http://www.guitartabcreator.com
Guitar Tab Creator is intended to store guitar tab created through the tool. It currently does not support in-line text editing. Any text you place in here will be lost. If you need to comment on your tab, please use the "Tab Notes" section located below.