Sound will begin in 5 seconds

Purple Haze solo

01234567891011121314151617181920212223
E
B
G
D
A
E
B
0 1 2 3 4 5 6 7 8 9 10 11 12 13 14 15 16 17 18 19 20 21 22 23
Song Science #1: How Pros Use 6 Chords to Write Hit Songs
(/) Slide Up  (\) Slide Down  (h) Hammer On  (p) Pull Off  (b) Bend (r) Release (v) Vibrato

Stave 1:

E|---------------------------------------------15b16b15-------------15b16b15--
B|-----------12b14-----------12b14--------------------------------------------
G|--------9---------------9----------------12-------------------12------------
D|--9/11------------9/11------------12/14----------------12/14----------------
A|----------------------------------------------------------------------------
E|----------------------------------------------------------------------------

Stave 2:

E|--12-------------------------------------------------------------------------
B|-------------15---------15---------15--12h14--12h14--12\10--10h12--10\9--10--
G|------14b16------14b16------14b16--------------------------------------------
D|-----------------------------------------------------------------------------
A|-----------------------------------------------------------------------------
E|-----------------------------------------------------------------------------

Stave 3:

E|-------------|-----------------------------------------------------------------
B|--10b12------|-----8--10-----8v--7/8\7----------------------------5--7--5h7p5--
G|-------------|--9---------9-------------9--7--7--9--7--6--7--4/6---------------
D|---------12--|-----------------------------------------------------------------
A|-------------|-----------------------------------------------------------------
E|-------------|-----------------------------------------------------------------

Stave 4:

E|---------------------------------|--------------14--12h14p12--10--12--9h10p9--7--9p7---------10---------
B|-----5--7------7-----7-----7-----|----------------------------------------------------10b12------10b12--
G|--7--------7v-----7-----7-----7--|------11--12----------------------------------------------------------
D|---------------------------------|--14------------------------------------------------------------------
A|---------------------------------|----------------------------------------------------------------------
E|---------------------------------|----------------------------------------------------------------------

http://www.guitartabcreator.com
Guitar Tab Creator is intended to store guitar tab created through the tool. It currently does not support in-line text editing. Any text you place in here will be lost. If you need to comment on your tab, please use the "Tab Notes" section located below.