Sound will begin in 5 seconds

Third Degree Blues

01234567891011121314151617181920212223
E
B
G
D
A
E
B
0 1 2 3 4 5 6 7 8 9 10 11 12 13 14 15 16 17 18 19 20 21 22 23
Song Science #1: How Pros Use 6 Chords to Write Hit Songs
(/) Slide Up  (\) Slide Down  (h) Hammer On  (p) Pull Off  (b) Bend (r) Release (v) Vibrato

(W|WW) Whole (H|HH) Half (Q|QQ) Quarter (E|EE) 8th (S|SS) 16th (T|TT) 32nd (X|XX) 64th

Stave 1:
t: E E E E E E Q E E E E E E E E H
E|--------------------------------------------------
B|-----------------1-----3--1--3--1--3--1--3--1-----
G|--2--2--2--0--2-----2--------------------------2--
D|--------------------------------------------------
A|--------------------------------------------------
E|--------------------------------------------------

Stave 2:
t: E E E E E E E E E E E E E E E E H E E
E|--------------------------------------------------------------------
B|--3--3--3--1--3--1-----1--3--1--3--1--3--1--3--1-----------------1--
G|--------------------2-----------------------------2-----------2-----
D|--------------------------------------------------------------------
A|--------------------------------------------------------------------
E|--------------------------------------------------------------------

Stave 3:
t: E E E E Q E E Q E E Q Q H
E|-----------------------------------------
B|--3--1--3--1--3-----1--3--3--1--3--1-----
G|-----------------2--------------------2--
D|-----------------------------------------
A|-----------------------------------------
E|-----------------------------------------

http://www.guitartabcreator.com
Guitar Tab Creator is intended to store guitar tab created through the tool. It currently does not support in-line text editing. Any text you place in here will be lost. If you need to comment on your tab, please use the "Tab Notes" section located below.