solo test

01234567891011121314151617181920212223
E
B
G
D
A
E
B
0 1 2 3 4 5 6 7 8 9 10 11 12 13 14 15 16 17 18 19 20 21 22 23
(/) Slide Up  (\) Slide Down  (h) Hammer On  (p) Pull Off  (b) Bend (r) Release (v) Vibrato

Stave 1:

B |------------------------------------------------7--10--11--10--7--10--5--9------------------------------------------------------------------------------------------------------------
Gb|-----------------9--10--12--10--9-----9--10--9----------------------------------------------------------------------------------------------------------------------------------------
D |-----------6--7--------------------7-----------------------------------------------------------------------------------------------------13--13--15--13------13--13--15--13----v--15--
A |--6--7--9----------------------------------------------------------------------------------------------------------------10--11--13--15------------------16------------------16-------
E |------------------------------------------------------------------------------------------9--10--10----------10--11--13---------------------------------------------------------------
A |----------------------------------------------------------------------------7--8--10--12-------------10--12---------------------------------------------------------------------------

Stave 2:

B |--
Gb|--
D |--
A |--
E |--
A |--

Stave 3:

B |---------------------------------------------------------------------------------------19------21--23--21----------19--21--23--21--------------------------------------------------------------------------
Gb|-----------------------------------------------------------------------------------23------23--------------23--21------------------19--21--19--18------18--------------------------------------------------
D |--16--20--16--15--16--18--16--15--16--20--16--15--16--18--16--15--16--20v--21--20------------------------------------------------------------------20------20--18--17v-------------------------------------
A |------------------------------------------------------------------------------------------------------------------------------------------------------------------------23--22--21--20--19--18--17--16-----
E |------------------------------------------------------------------------------------------------------------------------------------------------------------------------23--22--21--20--19--18--17--16-----
A |------------------------------------------------------------------------------------------------------------------------------------------------------------------------23--22--21--20--19--18--17--16-----

Stave 4:

B |-------------------------------------------------------------------------------7--8-----------------------------------------------12--13--15--------------13--15--17--19--17--20--18--17--15--
Gb|------------------------------------------------------------------------8--10--------8--10--12------------------------10--12--13--------------12--13--15--------------------------------------
D |--------------------------------------------------------------7--9--10-------------------------------------9--10--12--------------------------------------------------------------------------
A |--15--14--13--12--11--10--9--8----------------------7--9--10------------------------------------9--10--12-------------------------------------------------------------------------------------
E |--15--14--13--12--11--10--9--8------------7--8--10--------------------------------------------------------------------------------------------------------------------------------------------
A |--15--14--13--12--11--10--9--8--7--8--10------------------------------------------------------------------------------------------------------------------------------------------------------

Stave 5:

B |--18--17--15--13--15--13--12--10-----------------------
Gb|-------------------------------------------------------
D |-------------------------------------------------------
A |-------------------------------------------------------
E |----------------------------------12--11--10--9--8--7--
A |----------------------------------12--11--10--9--8--7--

							http://www.guitartabcreator.com
Chords

genre
Instruments
{"strings":[[[".",".",".",".",".",".",".",".",".",".",".",".",".",".",7,10,11,10,7,10,5,9,".",".",".",".",".",".",".",".",".",".",".",".",".",".",".",".",".",".",".",".",".",".",".",".",".",".",".","."],[".",".",".",".",".",9,10,12,10,9,".",9,10,9,".",".",".",".",".",".",".",".",".",".",".",".",".",".",".",".",".",".",".",".",".",".",".",".",".",".",".",".",".",".",".",".",".",".",".","."],[".",".",".",6,7,".",".",".",".",".",7,".",".",".",".",".",".",".",".",".",".",".",".",".",".",".",".",".",".",".",".",".",".",".",".",".",".",".",13,13,15,13,".",13,13,15,13,".","v",15],[6,7,9,".",".",".",".",".",".",".",".",".",".",".",".",".",".",".",".",".",".",".",".",".",".",".",".",".",".",".",".",".",".",".",10,11,13,15,".",".",".",".",16,".",".",".",".",16,".","."],[".",".",".",".",".",".",".",".",".",".",".",".",".",".",".",".",".",".",".",".",".",".",".",".",".",".",9,10,10,".",".",10,11,13,".",".",".",".",".",".",".",".",".",".",".",".",".",".",".","."],[".",".",".",".",".",".",".",".",".",".",".",".",".",".",".",".",".",".",".",".",".",".",7,8,10,12,".",".",".",10,12,".",".",".",".",".",".",".",".",".",".",".",".",".",".",".",".",".",".","."]],[[],[],[],[],[],[]],[[".",".",".",".",".",".",".",".",".",".",".",".",".",".",".",".",".",".",".",".",".",".",19,".",21,23,21,".",".",19,21,23,21,".",".",".",".",".",".",".",".",".",".",".",".",".",".",".",".",".",".","."],[".",".",".",".",".",".",".",".",".",".",".",".",".",".",".",".",".",".",".",".",".",23,".",23,".",".",".",23,21,".",".",".",".",19,21,19,18,".",18,".",".",".",".",".",".",".",".",".",".",".",".","."],[16,20,16,15,16,18,16,15,16,20,16,15,16,18,16,15,16,20,"v",21,20,".",".",".",".",".",".",".",".",".",".",".",".",".",".",".",".",20,".",20,18,17,"v",".",".",".",".",".",".",".",".","."],[".",".",".",".",".",".",".",".",".",".",".",".",".",".",".",".",".",".",".",".",".",".",".",".",".",".",".",".",".",".",".",".",".",".",".",".",".",".",".",".",".",".",".",23,22,21,20,19,18,17,16,"."],[".",".",".",".",".",".",".",".",".",".",".",".",".",".",".",".",".",".",".",".",".",".",".",".",".",".",".",".",".",".",".",".",".",".",".",".",".",".",".",".",".",".",".",23,22,21,20,19,18,17,16,"."],[".",".",".",".",".",".",".",".",".",".",".",".",".",".",".",".",".",".",".",".",".",".",".",".",".",".",".",".",".",".",".",".",".",".",".",".",".",".",".",".",".",".",".",23,22,21,20,19,18,17,16,"."]],[[".",".",".",".",".",".",".",".",".",".",".",".",".",".",".",".",".",".",".",".",".",".",7,8,".",".",".",".",".",".",".",".",".",".",".",".",12,13,15,".",".",".",13,15,17,19,17,20,18,17,15],[".",".",".",".",".",".",".",".",".",".",".",".",".",".",".",".",".",".",".",".",8,10,".",".",8,10,12,".",".",".",".",".",".",10,12,13,".",".",".",12,13,15,".",".",".",".",".",".",".",".","."],[".",".",".",".",".",".",".",".",".",".",".",".",".",".",".",".",".",7,9,10,".",".",".",".",".",".",".",".",".",".",9,10,12,".",".",".",".",".",".",".",".",".",".",".",".",".",".",".",".",".","."],[15,14,13,12,11,10,9,8,".",".",".",".",".",".",7,9,10,".",".",".",".",".",".",".",".",".",".",9,10,12,".",".",".",".",".",".",".",".",".",".",".",".",".",".",".",".",".",".",".",".","."],[15,14,13,12,11,10,9,8,".",".",".",7,8,10,".",".",".",".",".",".",".",".",".",".",".",".",".",".",".",".",".",".",".",".",".",".",".",".",".",".",".",".",".",".",".",".",".",".",".",".","."],[15,14,13,12,11,10,9,8,7,8,10,".",".",".",".",".",".",".",".",".",".",".",".",".",".",".",".",".",".",".",".",".",".",".",".",".",".",".",".",".",".",".",".",".",".",".",".",".",".",".","."]],[[18,17,15,13,15,13,12,10,".",".",".",".",".","."],[".",".",".",".",".",".",".",".",".",".",".",".",".","."],[".",".",".",".",".",".",".",".",".",".",".",".",".","."],[".",".",".",".",".",".",".",".",".",".",".",".",".","."],[".",".",".",".",".",".",".",".",12,11,10,9,8,7],[".",".",".",".",".",".",".",".",12,11,10,9,8,7]]],"numberofstrings":6,"notes":["B","FsGb","D","A","E","A"],"capo":0,"stringnotes":["B2","Gb2","D2","A1","E1","A0"],"comments":["Stave 1:","Stave 2:","Stave 3:","Stave 4:","Stave 5:"],"timing":[["W","W","W","W","W","W","W","W","W","W","W","W","W","W","W","W","W","W","W","W","W","W","W","W","W","W","W","W","W","W","W","W","W","W","W","W","W","W","W","W","W","W","W","W","W","W","W","W",null,"W"],[],["W","W","W","W","W","W","W","W","W","W","W","W","W","W","W","W","W","W",null,"W","W","W","W","W","W","W","W","W","W","W","W","W","W","W","W","W","W","W","W","W","W","W",null,"W","W","W","W","W","W","W","W"],["W","W","W","W","W","W","W","W","W","W","W","W","W","W","W","W","W","W","W","W","W","W","W","W","W","W","W","W","W","W","W","W","W","W","W","W","W","W","W","W","W","W","W","W","W","W","W","W","W","W","W"],["W","W","W","W","W","W","W","W","W","W","W","W","W","W"]],"timingvisible":false,"tabcounter":13,"stave":4,"totalstaves":5,"instrument":"6guitar","selectedtuning":"Drop A","version":"13"}

Member for

2 months 3 weeks
Submitted by levemealone on Mon, 2021-07-26 18:34