solo test

01234567891011121314151617181920212223
E
B
G
D
A
E
B
0 1 2 3 4 5 6 7 8 9 10 11 12 13 14 15 16 17 18 19 20 21 22 23
(/) Slide Up  (\) Slide Down  (h) Hammer On  (p) Pull Off  (b) Bend (r) Release (v) Vibrato

Stave 1:

Db|------------------------------------------------7--10--11--10--7--10--5--9------------------------------------------------------------------------------------------------------------
Ab|-----------------9--10--12--10--9-----9--10--9----------------------------------------------------------------------------------------------------------------------------------------
E |-----------6--7--------------------7-----------------------------------------------------------------------------------------------------13--13--15--13------13--13--15--13----v--15--
B |--6--7--9----------------------------------------------------------------------------------------------------------------10--11--13--15------------------16------------------16-------
Gb|------------------------------------------------------------------------------------------9--10--10----------10--11--13---------------------------------------------------------------
B |----------------------------------------------------------------------------7--8--10--12-------------10--12---------------------------------------------------------------------------

Stave 2:

Db|--
Ab|--
E |--
B |--
Gb|--
B |--

Stave 3:

Db|---------------------------------------------------------------------------------------19------21--23--21----------19--21--23--21---------------------------------------
Ab|-----------------------------------------------------------------------------------23------23--------------23--21------------------19--21--19--18------18---------------
E |--16--20--16--15--16--18--16--15--16--20--16--15--16--18--16--15--16--20v--21--20------------------------------------------------------------------20------20--18--17v--
B |------------------------------------------------------------------------------------------------------------------------------------------------------------------------
Gb|------------------------------------------------------------------------------------------------------------------------------------------------------------------------
B |------------------------------------------------------------------------------------------------------------------------------------------------------------------------

							http://www.guitartabcreator.com
Chords

genre
Instruments
{"strings":[[[".",".",".",".",".",".",".",".",".",".",".",".",".",".",7,10,11,10,7,10,5,9,".",".",".",".",".",".",".",".",".",".",".",".",".",".",".",".",".",".",".",".",".",".",".",".",".",".",".","."],[".",".",".",".",".",9,10,12,10,9,".",9,10,9,".",".",".",".",".",".",".",".",".",".",".",".",".",".",".",".",".",".",".",".",".",".",".",".",".",".",".",".",".",".",".",".",".",".",".","."],[".",".",".",6,7,".",".",".",".",".",7,".",".",".",".",".",".",".",".",".",".",".",".",".",".",".",".",".",".",".",".",".",".",".",".",".",".",".",13,13,15,13,".",13,13,15,13,".","v",15],[6,7,9,".",".",".",".",".",".",".",".",".",".",".",".",".",".",".",".",".",".",".",".",".",".",".",".",".",".",".",".",".",".",".",10,11,13,15,".",".",".",".",16,".",".",".",".",16,".","."],[".",".",".",".",".",".",".",".",".",".",".",".",".",".",".",".",".",".",".",".",".",".",".",".",".",".",9,10,10,".",".",10,11,13,".",".",".",".",".",".",".",".",".",".",".",".",".",".",".","."],[".",".",".",".",".",".",".",".",".",".",".",".",".",".",".",".",".",".",".",".",".",".",7,8,10,12,".",".",".",10,12,".",".",".",".",".",".",".",".",".",".",".",".",".",".",".",".",".",".","."]],[[],[],[],[],[],[]],[[".",".",".",".",".",".",".",".",".",".",".",".",".",".",".",".",".",".",".",".",".",".",19,".",21,23,21,".",".",19,21,23,21,".",".",".",".",".",".",".",".",".","."],[".",".",".",".",".",".",".",".",".",".",".",".",".",".",".",".",".",".",".",".",".",23,".",23,".",".",".",23,21,".",".",".",".",19,21,19,18,".",18,".",".",".","."],[16,20,16,15,16,18,16,15,16,20,16,15,16,18,16,15,16,20,"v",21,20,".",".",".",".",".",".",".",".",".",".",".",".",".",".",".",".",20,".",20,18,17,"v"],[".",".",".",".",".",".",".",".",".",".",".",".",".",".",".",".",".",".",".",".",".",".",".",".",".",".",".",".",".",".",".",".",".",".",".",".",".",".",".",".",".",".","."],[".",".",".",".",".",".",".",".",".",".",".",".",".",".",".",".",".",".",".",".",".",".",".",".",".",".",".",".",".",".",".",".",".",".",".",".",".",".",".",".",".",".","."],[".",".",".",".",".",".",".",".",".",".",".",".",".",".",".",".",".",".",".",".",".",".",".",".",".",".",".",".",".",".",".",".",".",".",".",".",".",".",".",".",".",".","."]]],"numberofstrings":6,"notes":["CsDb","GsAb","E","B","FsGb","B"],"capo":0,"stringnotes":["Db3","Ab2","E2","B1","Gb1","B0"],"comments":["Stave 1:","Stave 2:","Stave 3:"],"timing":[["W","W","W","W","W","W","W","W","W","W","W","W","W","W","W","W","W","W","W","W","W","W","W","W","W","W","W","W","W","W","W","W","W","W","W","W","W","W","W","W","W","W","W","W","W","W","W","W",null,"W"],[],["W","W","W","W","W","W","W","W","W","W","W","W","W","W","W","W","W","W",null,"W","W","W","W","W","W","W","W","W","W","W","W","W","W","W","W","W","W","W","W","W","W","W"]],"timingvisible":false,"tabcounter":43,"stave":2,"totalstaves":3,"instrument":"6guitar","selectedtuning":"Drop B","version":"13"}

Member for

2 months 3 weeks
Submitted by levemealone on Mon, 2021-07-26 18:21