moonlight sonata lead

01234567891011121314151617181920212223
E
B
G
D
A
E
B
0 1 2 3 4 5 6 7 8 9 10 11 12 13 14 15 16 17 18 19 20 21 22 23
(/) Slide Up  (\) Slide Down  (h) Hammer On  (p) Pull Off  (b) Bend (r) Release (v) Vibrato

Stave 1:

E|-----------------------------------------------------------------------------------------------------------------------------------------------------------
B|-----------------------------------------------------------------------------------------------------------------------------------------------------------
G|--------5--------5--------5--------5--------5--------5--------5--------5--------5--------5--------7--------7--------7--------5--------4--------4-----------
D|-----7--------7--------7--------7--------7--------7--------7--------7--------7--------7--------8--------8--------6--------7--------7--------6-----------7--
A|--7--------7--------7--------7--------7--------7--------7--------7--------8--------8--------8--------8--------7--------7--------7--------5-----------7-----
E|--------------------------------------------------------------------------------------------------------------------------------------------------8--------

Stave 2:

E|--
B|--
G|--
D|--
A|--
E|--

Stave 3:

E|---------------------------------------------------------------------------------------------------------------------------------------------
B|---------------------------------------------------------------------------------------------------------------------------------------------
G|--------4-----------------5--------5--------5--------7--------7--------7--------7--------5--------5--------7--------7----------9----------9--
D|-----6-----------7-----7--------7--------7--------9--------9--------9--------9--------7--------7--------8--------8---------10---------10-----
A|--5-----------7-----7--------7--------7--------7--------7--------7--------7--------7--------7--------8--------8--------10---------10---------
E|-----------8---------------------------------------------------------------------------------------------------------------------------------

Stave 4:

E|---------------------------------------------------------------------------------------------------------------------------------------------------------
B|---------------------------------------------------------------------------------------------------------------------------------------------------------
G|--9---------10---------10--------5--------5--------5--------5--------5--------5--------5--------5--------6--------6--------6--------6--------5--------5--
D|---------9----------9---------5--------5--------5--------5--------5--------5--------5--------5--------5--------5--------5--------5--------6--------5-----
A|-----10---------10---------7--------7--------7--------7--------6--------6--------6--------6--------6--------6--------6--------6--------6--------6--------
E|---------------------------------------------------------------------------------------------------------------------------------------------------------

Stave 5:

E|--------------------
B|--------------------
G|--------5--------5--
D|-----7--------7-----
A|--6--------5--------
E|--------------------

							http://www.guitartabcreator.com
Chords

Instruments
{"strings":[[[".",".",".",".",".",".",".",".",".",".",".",".",".",".",".",".",".",".",".",".",".",".",".",".",".",".",".",".",".",".",".",".",".",".",".",".",".",".",".",".",".",".",".",".",".",".",".",".",".",".","."],[".",".",".",".",".",".",".",".",".",".",".",".",".",".",".",".",".",".",".",".",".",".",".",".",".",".",".",".",".",".",".",".",".",".",".",".",".",".",".",".",".",".",".",".",".",".",".",".",".",".","."],[".",".",5,".",".",5,".",".",5,".",".",5,".",".",5,".",".",5,".",".",5,".",".",5,".",".",5,".",".",5,".",".",7,".",".",7,".",".",7,".",".",5,".",".",4,".",".",4,".",".","."],[".",7,".",".",7,".",".",7,".",".",7,".",".",7,".",".",7,".",".",7,".",".",7,".",".",7,".",".",7,".",".",8,".",".",8,".",".",6,".",".",7,".",".",7,".",".",6,".",".",".",7],[7,".",".",7,".",".",7,".",".",7,".",".",7,".",".",7,".",".",7,".",".",7,".",".",8,".",".",8,".",".",8,".",".",8,".",".",7,".",".",7,".",".",7,".",".",5,".",".",".",7,"."],[".",".",".",".",".",".",".",".",".",".",".",".",".",".",".",".",".",".",".",".",".",".",".",".",".",".",".",".",".",".",".",".",".",".",".",".",".",".",".",".",".",".",".",".",".",".",".",".",8,".","."]],[[],[],[],[],[],[]],[[".",".",".",".",".",".",".",".",".",".",".",".",".",".",".",".",".",".",".",".",".",".",".",".",".",".",".",".",".",".",".",".",".",".",".",".",".",".",".",".",".",".",".",".","."],[".",".",".",".",".",".",".",".",".",".",".",".",".",".",".",".",".",".",".",".",".",".",".",".",".",".",".",".",".",".",".",".",".",".",".",".",".",".",".",".",".",".",".",".","."],[".",".",4,".",".",".",".",".",5,".",".",5,".",".",5,".",".",7,".",".",7,".",".",7,".",".",7,".",".",5,".",".",5,".",".",7,".",".",7,".",".",9,".",".",9],[".",6,".",".",".",7,".",7,".",".",7,".",".",7,".",".",9,".",".",9,".",".",9,".",".",9,".",".",7,".",".",7,".",".",8,".",".",8,".",".",10,".",".",10,"."],[5,".",".",".",7,".",7,".",".",7,".",".",7,".",".",7,".",".",7,".",".",7,".",".",7,".",".",7,".",".",7,".",".",8,".",".",8,".",".",10,".",".",10,".","."],[".",".",".",8,".",".",".",".",".",".",".",".",".",".",".",".",".",".",".",".",".",".",".",".",".",".",".",".",".",".",".",".",".",".",".",".",".",".",".",".",".",".",".",".","."]],[[".",".",".",".",".",".",".",".",".",".",".",".",".",".",".",".",".",".",".",".",".",".",".",".",".",".",".",".",".",".",".",".",".",".",".",".",".",".",".",".",".",".",".",".",".",".",".",".","."],[".",".",".",".",".",".",".",".",".",".",".",".",".",".",".",".",".",".",".",".",".",".",".",".",".",".",".",".",".",".",".",".",".",".",".",".",".",".",".",".",".",".",".",".",".",".",".",".","."],[9,".",".",10,".",".",10,".",".",5,".",".",5,".",".",5,".",".",5,".",".",5,".",".",5,".",".",5,".",".",5,".",".",6,".",".",6,".",".",6,".",".",6,".",".",5,".",".",5],[".",".",9,".",".",9,".",".",5,".",".",5,".",".",5,".",".",5,".",".",5,".",".",5,".",".",5,".",".",5,".",".",5,".",".",5,".",".",5,".",".",5,".",".",6,".",".",5,"."],[".",10,".",".",10,".",".",7,".",".",7,".",".",7,".",".",7,".",".",6,".",".",6,".",".",6,".",".",6,".",".",6,".",".",6,".",".",6,".",".",6,".",".",6,".",".",6,".","."],[".",".",".",".",".",".",".",".",".",".",".",".",".",".",".",".",".",".",".",".",".",".",".",".",".",".",".",".",".",".",".",".",".",".",".",".",".",".",".",".",".",".",".",".",".",".",".",".","."]],[[".",".",".",".",".","."],[".",".",".",".",".","."],[".",".",5,".",".",5],[".",7,".",".",7,"."],[6,".",".",5,".","."],[".",".",".",".",".","."]]],"numberofstrings":6,"notes":["E","B","G","D","A","E","B"],"capo":0,"stringnotes":["E4","B3","G3","D3","A2","E2"],"comments":["Stave 1:","Stave 2:","Stave 3:",null,"Stave 5:"],"timing":[["W","W","W","W","W","W","W","W","W","W","W","W","W","W","W","W","W","W","W","W","W","W","W","W","W","W","W","W","W","W","W","W","W","W","W","W","W","W","W","W","W","W","W","W","W","W","W","W","W","W","W"],[],["W","W","W","W","W","W","W","W","W","W","W","W","W","W","W","W","W","W","W","W","W","W","W","W","W","W","W","W","W","W","W","W","W","W","W","W","W","W","W","W","W","W","W","W","W","W","W","W","W"],null,["W","W","W","W","W","W"]],"timingvisible":false,"tabcounter":6,"stave":4,"totalstaves":5,"instrument":"6guitar","selectedtuning":"6_standard","version":"13"}

Member for

3 months 3 weeks
Submitted by levemealone on Mon, 2021-08-02 19:29