Sound will begin in 5 seconds

Practice Run 1

01234567891011121314151617181920212223
E
B
G
D
A
E
B
0 1 2 3 4 5 6 7 8 9 10 11 12 13 14 15 16 17 18 19 20 21 22 23
Song Science #1: How Pros Use 6 Chords to Write Hit Songs
(/) Slide Up  (\) Slide Down  (h) Hammer On  (p) Pull Off  (b) Bend (r) Release (v) Vibrato

Stave 1:

E|--------------------------------------------------------------1--2--3--4--
B|--------------------------------------------------1--2--3--4--------------
G|--------------------------------------1--2--3--4--------------------------
D|--------------------------1--2--3--4--------------------------------------
A|--------------1--2--3--4--------------------------------------------------
E|--1--2--3--4--------------------------------------------------------------

Stave 2:

E|--5--4--3--2--------------------------------------------------------------
B|--------------5--4--3--2--------------------------------------------------
G|--------------------------5--4--3--2--------------------------------------
D|--------------------------------------5--4--3--2--------------------------
A|--------------------------------------------------5--4--3--2--------------
E|--------------------------------------------------------------5--4--3--2--

Stave 3:

E|--------------------------------------------------------------3--4--5--6--
B|--------------------------------------------------3--4--5--6--------------
G|--------------------------------------3--4--5--6--------------------------
D|--------------------------3--4--5--6--------------------------------------
A|--------------3--4--5--6--------------------------------------------------
E|--3--4--5--6--------------------------------------------------------------

Stave 4:

E|--7--6--5--4--------------------------------------------------------------
B|--------------7--6--5--4--------------------------------------------------
G|--------------------------7--6--5--4--------------------------------------
D|--------------------------------------7--6--5--4--------------------------
A|--------------------------------------------------7--6--5--4--------------
E|--------------------------------------------------------------7--6--5--4--

Stave 5:

E|--------------------------------------------------------------5--6--7--8--
B|--------------------------------------------------5--6--7--8--------------
G|--------------------------------------5--6--7--8--------------------------
D|--------------------------5--6--7--8--------------------------------------
A|--------------5--6--7--8--------------------------------------------------
E|--5--6--7--8--------------------------------------------------------------

Stave 6:

E|--9--8--7--6--------------------------------------------------------------
B|--------------9--8--7--6--------------------------------------------------
G|--------------------------9--8--7--6--------------------------------------
D|--------------------------------------9--8--7--6--------------------------
A|--------------------------------------------------9--8--7--6--------------
E|--------------------------------------------------------------9--8--7--6--

Stave 7:

E|-------------------------------------------------------------------7--8--9--10--
B|------------------------------------------------------7--8--9--10---------------
G|-----------------------------------------7--8--9--10----------------------------
D|----------------------------7--8--9--10-----------------------------------------
A|---------------7--8--9--10------------------------------------------------------
E|--7--8--9--10-------------------------------------------------------------------

Stave 8:

E|--11--10--9--8-------------------------
B|----------------11--10--9--8-----------
G|------------------------------8--8--8--
D|---------------------------------------
A|---------------------------------------
E|---------------------------------------

Stave 9:

E|--11--10--9--8------------------------------------------------------------------------
B|----------------11--10--9--8----------------------------------------------------------
G|------------------------------11--10--9--8--------------------------------------------
D|--------------------------------------------11--10--9--8------------------------------
A|----------------------------------------------------------11--10--9--8----------------
E|------------------------------------------------------------------------11--10--9--8--

Stave 10:

E|-----------------------------------------------------------------------------9--10--11--12--
B|--------------------------------------------------------------9--10--11--12-----------------
G|-----------------------------------------------9--10--11--12--------------------------------
D|--------------------------------9--10--11--12-----------------------------------------------
A|-----------------9--10--11--12--------------------------------------------------------------
E|--9--10--11--12-----------------------------------------------------------------------------

http://www.guitartabcreator.com
Guitar Tab Creator is intended to store guitar tab created through the tool. It currently does not support in-line text editing. Any text you place in here will be lost. If you need to comment on your tab, please use the "Tab Notes" section located below.