Sound will begin in 5 seconds

Bolero Ravel

01234567891011121314151617181920212223
E
B
G
D
A
E
B
0 1 2 3 4 5 6 7 8 9 10 11 12 13 14 15 16 17 18 19 20 21 22 23
Song Science #1: How Pros Use 6 Chords to Write Hit Songs
(/) Slide Up  (\) Slide Down  (h) Hammer On  (p) Pull Off  (b) Bend (r) Release (v) Vibrato

Stave 1:

E|----8----7--8--10--8--7------8--8------8----7--8------------------------------------------------
B|-------------------------10--------10-------------10--8---------8-------------------8--10--8----
G|---------------------------------------------------------9--10-----10--9--7--9--10--------------
D|------------------------------------------------------------------------------------------------
A|------------------------------------------------------------------------------------------------
E|------------------------------------------------------------------------------------------------

Stave 2:

E|--------7---------------------------------------------------10----8--7------7--8--10--8--7--8--7------
B|----10-----10--8-----------------------------------------8--------------10------------------------10--
G|------------------10--9--7--9--7------------7--9--10--7-----------------------------------------------
D|----------------------------------10----10------------------------------------------------------------
A|------------------------------------------------------------------------------------------------------
E|------------------------------------------------------------------------------------------------------

Stave 3:

E|----8--7----------------------------8------7---------------------------7----------------------------
B|----------10--------------------10-----10-----8--------------------10-----8--10---------------------
G|--------------10----10--10--10-------------------10----10--10--10----------------10--7--7------7----
D|-------------------------------------------------------------------------------------------10-------
A|----------------------------------------------------------------------------------------------------
E|----------------------------------------------------------------------------------------------------

Stave 4:

E|--------------------------------------------------------------------------------------6----5--------
B|----------------------10------8------------------------------------8--------------------------8--6--
G|----7----7--7--7--10------10-----9--7--7------7----7--5--7--9--10-------10--9--7--------------------
D|------------------------------------------10--------------------------------------10----------------
A|----------------------------------------------------------------------------------------------------
E|----------------------------------------------------------------------------------------------------

Stave 5:

E|----6--8--5-----6--5-----6----5--6--5-------------------6--8--9--9--9--9--9--9--9--9--9--8--6--9--8--
B|-------------8--------8----------------8--6--5-----5-------------------------------------------------
G|------------------------------------------------7----------------------------------------------------
D|-----------------------------------------------------------------------------------------------------
A|-----------------------------------------------------------------------------------------------------
E|-----------------------------------------------------------------------------------------------------

Stave 6:

E|----6--9--8--6---------------------------------------------------------------------------------------
B|----------------9--8--6-------------------6--8--9--6--8----------------------------------5--3-----3--
G|-------------------------9----7--9--7--9-----------------9--7--9--7--5----3--5--3--5--3--------5-----
D|-----------------------------------------------------------------------------------------------------
A|-----------------------------------------------------------------------------------------------------
E|-----------------------------------------------------------------------------------------------------

Stave 7:

E|-------------------------------------------------------------------------18----17----------18--20--
B|-----------------------------------------------------------------------------------20--18----------
G|----5--3-----3-------------------------------------------------------------------------------------
D|----------6-----6--5----3--5--3-------3-----3----------------3-------------------------------------
A|---------------------------------6-------6-----4----4--6--4-----6--4--3----------------------------
E|---------------------------------------------------------------------------------------------------

Stave 8:

E|----17------18--17------18--17--18--17------------------------18--20--21--21--21--21--21--21--21--
B|--------20----------20------------------20----18--17------17--------------------------------------
G|------------------------------------------------------19------------------------------------------
D|--------------------------------------------------------------------------------------------------
A|--------------------------------------------------------------------------------------------------
E|--------------------------------------------------------------------------------------------------

Stave 9:

E|----21--21--20--18--21--20--18--21--20--18----------------------------------------------------------
B|--------------------------------------------21--20--18------------------------18----20--21--18--20--
G|--------------------------------------------------------21--19----21--19--21------------------------
D|----------------------------------------------------------------------------------------------------
A|----------------------------------------------------------------------------------------------------
E|----------------------------------------------------------------------------------------------------

Stave 10:

E|----------------------------------------------------------------------------------------------------
B|------------------------------------------15--17--15------15----------------------------------------
G|----21--19--21--19--17--15----17--15--17--------------17------17--15------15------------------------
D|----------------------------------------------------------------------18------18--17----15--17--15--
A|----------------------------------------------------------------------------------------------------
E|----------------------------------------------------------------------------------------------------

Stave 11:

E|----------------------------------------------------6----5--------6--8--5-----6--5-----6----5--6--5--
B|------------------------------------------------------------8--6-----------8--------8----------------
G|-----------------------------------------------------------------------------------------------------
D|----------15------------------------15---------------------------------------------------------------
A|----18--------18--16----16--18--16------18--16--15---------------------------------------------------
E|-----------------------------------------------------------------------------------------------------

Stave 12:

E|---------------------6--8--9--9--9--9--9--9--9--9--9--8--6--9--8--6--9--8--6-------------------------
B|----8--6--5-----5-------------------------------------------------------------9--8--6----------------
G|-------------7-------------------------------------------------------------------------9----7--9--7--
D|-----------------------------------------------------------------------------------------------------
A|-----------------------------------------------------------------------------------------------------
E|-----------------------------------------------------------------------------------------------------

Stave 13:

E|------------------------------------------------------------------------------------------------------
B|-------6--8--9--6--8----------------------------3--5--3-----3--------------------------------------8--
G|----9-----------------9--7--9--7--5----3--3--5-----------5-----5--3-----3----------7--9--7--9--10-----
D|---------------------------------------------------------------------6-----6--5-----------------------
A|------------------------------------------------------------------------------------------------------
E|------------------------------------------------------------------------------------------------------

Stave 14:

E|--7----------------------7--8--7----8--10--8--7--------------------7----8--10--8--7----------------
B|-------10--8------8--10--------------------------10--8------8--10--------------------10--8------8--
G|--------------10----------------------------------------10----------------------------------10-----
D|---------------------------------------------------------------------------------------------------
A|---------------------------------------------------------------------------------------------------
E|---------------------------------------------------------------------------------------------------

Stave 15:

E|----------------------------------------------------------------------------------------------------
B|---------------------------7--9--7----------------------7--9--7---------------------7/9--------7/9--
G|----10--9----7-----7--9-------------9----7------7--9-------------9----7------7-----------9/11-------
D|----------------8---------------------------10---------------------------10-----10------------------
A|----------------------------------------------------------------------------------------------------
E|----------------------------------------------------------------------------------------------------

Stave 16:

E|-------------------------------------
B|----------7/9--------7/9--------7/9--
G|----9/11-------9/11-------9/11-------
D|-------------------------------------
A|-------------------------------------
E|-------------------------------------

http://www.guitartabcreator.com
Guitar Tab Creator is intended to store guitar tab created through the tool. It currently does not support in-line text editing. Any text you place in here will be lost. If you need to comment on your tab, please use the "Tab Notes" section located below.