Sound will begin in 5 seconds

Garota de Ipanema

Chords
01234567891011121314151617181920212223
E
B
G
D
A
E
B
0 1 2 3 4 5 6 7 8 9 10 11 12 13 14 15 16 17 18 19 20 21 22 23
Song Science #1: How Pros Use 6 Chords to Write Hit Songs
(/) Slide Up  (\) Slide Down  (h) Hammer On  (p) Pull Off  (b) Bend (r) Release (v) Vibrato

Stave 1:

E|--------------------------------------------------------------------------------------------------
B|--1--1-----1--1--1-----1--5--5-----5--4--4-----4--3--------3-----3--3-----1--1-----1--1--1-----1--
G|--2--2-----2--2--2-----2--4--4-----4--4--4-----4--3--------3-----3--2-----2--2-----2--2--2-----2--
D|--2--2-----2--2--2-----2--5--5-----5--3--3-----3--3--------3-----3--3-----2--2-----2--2--2-----2--
A|--------------------------------------------------------------------3--3--------------------------
E|--1-----1-----1-----1-----3-----3-----3-----3-----3-----------3-----------1-----1-----1-----1--1--

Stave 2:

E|--1--1-----1--1--1-----1--------------------------4--4-----4--4--4-----4--------------------------
B|--2--2-----2--2--2-----2--2--2-----2--2--2-----2--5--5-----5--5--5-----5--5--5-----5--5--5-----5--
G|--3--3-----3--3--3-----3--2--2-----2--2--2-----2--6--6-----6--6--6-----6--5--5-----5--5--5-----5--
D|--------------------------1--1-----1--1--1-----1--------------------------4--4-----4--4--4-----4--
A|--------------------------2-----2-----2-----2-----------------------------5-----5-----5-----5-----
E|--2-----2-----2-----2-----------------------------5-----5-----5-----5-----------------------------

Stave 3:

E|-----------------------------------------------------3--3--0--0--3--3-----0--3-----3--------------------
B|--5--5-----5--5-----5-----3--3-----3--3--3-----3-----1--1--1--1--1--1-----1--5-----5-----5-----5--4--4--
G|--5--5-----5--5-----4-----3--3-----3--3--3-----3-----2--2--2--2--2--2-----2--4-----4-----4-----4--4--4--
D|--5--5-----5--4-----5-----3--3-----3--2--2-----2-----------------------------------------5-----5--3-----
A|--------------5-----4-----------------3-----3-----------------------------------------------------------
E|--5-----5-----------------3-----3-----------------1--------1-----1-----1--------3-----------3-----3-----

Stave 4:

E|-----------------------------------------------------------3--3--0--0--3--3--0--0--3-----3--------------
B|--6-----6-----3-----5--5-----5--1--1-----1--1--1-----1-----1--1--1--1--1--1--1--1--5-----5--5-----5-----
G|--3-----3-----3-----3--3-----3--2--2-----2--2--2-----2-----2-----2-----2-----2-----4-----4--4-----4-----
D|--3-----3--5--------3--------3--2--2-----2--2--2-----2--2-----------------------------------5-----5-----
A|-----------------3--3-----3-----------------------------------------------------------------------------
E|-----3--------------------------1-----1-----1-----1--------1-----1-----1-----1--------3--------3-----3--

Stave 5:

E|-----------------------------------------------
B|--4-----4-----5-----6--3--3--3--5--5-----5-----
G|--4-----4-----3-----3--3--3--3--3--3-----3-----
D|--3-----3-----3-----3--3--------3--3-----3-----
A|--------------------------------3-----3--------
E|-----3-----3-----3-----3-----------------------

Stave 6:

E|--------------------------1--1-----1--------------1-----------------------------4--4-----4--
B|--1--1-----1--1--1-----1--2--2-----2--6--7--6--4-----4--2--2-----2--4--4-----4--5--5-----5--
G|--2--2-----2--2--2-----2--3--3-----3--------------------2--2-----2--2--2-----2--6--6-----6--
D|--2--2-----2--2--2-----2--------------------------------1--1-----1--1--1-----1--------------
A|--------------------------------------------------------2-----------2-----2-----------------
E|--1-----1-----1-----1-----2-----2-----------------------------2-----------------5-----5-----

Stave 7:

E|---------------4-----------------------------5--5-----5--6--5-----5-----------------------------
B|--9--10--9--7-----7--5--5-----5--7--7-----7--6--6-----6--------8-----8--6--6-----6--8--8-----8--
G|---------------------5--5-----5--5--5-----5--7--7-----7-----------------6--6-----6--6--6-----6--
D|---------------------4--4-----4--4--4-----4-----------------------------5--5-----5--5--5-----5--
A|---------------------5-----5-----5-----5--------------------------------6-----6-----6-----6-----
E|---------------------------------------------6-----6--------------------------------------------

Stave 8:

E|--5--6--8-----------------5-----6--6-----------------------2--3-----
B|--------------0-----------6-----6--------------3--4--5--6--3--3--1--
G|-----------------6--7--9--6-----6--------3--5--------------3--3--2--
D|-----------7--------------------------5--------------------------2--
A|--------------------------------------------------------------------
E|--------5-----------------6-----6--3-----------------------3--3--1--

http://www.guitartabcreator.com
Guitar Tab Creator is intended to store guitar tab created through the tool. It currently does not support in-line text editing. Any text you place in here will be lost. If you need to comment on your tab, please use the "Tab Notes" section located below.