Sound will begin in 5 seconds

Don't you worry childz

Chords
01234567891011121314151617181920212223
E
B
G
D
A
E
B
0 1 2 3 4 5 6 7 8 9 10 11 12 13 14 15 16 17 18 19 20 21 22 23
Song Science #1: How Pros Use 6 Chords to Write Hit Songs
(/) Slide Up  (\) Slide Down  (h) Hammer On  (p) Pull Off  (b) Bend (r) Release (v) Vibrato

Stave 1:

E|--13--13--13--13--13--13--13--13--13--13--13--13--
B|--14--14--13--13--13--13--14--14--13--13--13--13--
G|--15--15--15--15--15--15--15--15--15--15--15--15--
D|--_----------------------------------------------
A|--_----------------------------------------------
E|--_----------------------------------------------

Stave 2:

E|--9---9---9---9---9---9---9---9---9---9---9---9---
B|--11--11--11--11--11--11--11--11--11--11--11--11--
G|--11--11--10--10--10--10--11--11--10--10--10--10--
D|--_----------------------------------------------
A|--_----------------------------------------------
E|--_----------------------------------------------

Stave 3:

E|-------------------------------------------------
B|-------------------------------------------------
G|----3--3--3--3--3--3--3--3--3--3--3--3--3--3--3--
D|----3--3--3--3--3--3--3--3--3--3--3--3--3--3--3--
A|----1--1--1--1--1--1--1--1--1--1--1--1--1--1--1--
E|-------------------------------------------------

Stave 4:

E|-------------------------------------------------
B|-------------------------------------------------
G|-------------------------------------------------
D|--4--4--4--4--4--4--4--4--4--4--4--4--4--4--4--4--
A|--4--4--4--4--4--4--4--4--4--4--4--4--4--4--4--4--
E|--2--2--2--2--2--2--2--2--2--2--2--2--2--2--2--2--

Stave 5:

E|-------
B|-------
G|-------
D|----8--
A|----8--
E|----6--

Stave 6:

E|-------------------
B|-------------------
G|-------------------
D|--4--4--4--4--3--4--
A|--4--4--4--4--3--4--
E|--2--2--2--2--1--2--

http://www.guitartabcreator.com
Guitar Tab Creator is intended to store guitar tab created through the tool. It currently does not support in-line text editing. Any text you place in here will be lost. If you need to comment on your tab, please use the "Tab Notes" section located below.