Sound will begin in 5 seconds

Tema 1 Lisaos

01234567891011121314151617181920212223
E
B
G
D
A
E
B
0 1 2 3 4 5 6 7 8 9 10 11 12 13 14 15 16 17 18 19 20 21 22 23
Song Science #1: How Pros Use 6 Chords to Write Hit Songs
(/) Slide Up  (\) Slide Down  (h) Hammer On  (p) Pull Off  (b) Bend (r) Release (v) Vibrato

Stave 1:

E|-----------------------------------------------------------------------------------------
B|-----------------------------------------------------------------------------------------
G|-----------------------------------------------------------------------------------------
D|-----------------------------------------------------------------------------------------
A|-----------------7--7--7--------------7--7--7--------------------------------------------
E|--0--0--0--0--0-----------0--0--0--0-----------0--0--0--0--2--3--3--3--2--3--2--3--2--3--

Stave 2:

E|--------------------------------------------------------------------------------
B|--------------------------------------------------------------------------------
G|--------------------------------------------------------------------------------
D|--------------------------------------------------------------------------------
A|-----------------7--7--7--------------------------------------------------------
E|--0--0--0--0--0-----------7--8--7--0--0--0--0--0--2--3--3--3--2--3--2--3--2--3--

Stave 3:

E|--------------------------------------------------------------------------------------------------------
B|--------------------------------------------------------------------------------------------------------
G|--------------------------------------------------------------------------------------------------------
D|--------------------------------------------------------------------------------------------------------
A|-----------------7--7--7-----------------------------------7--------------------------------------------
E|--0--0--0--0--0-----------7--8--7--0--0--2--3--2--3--2--0-----7--8--7--2--2--2--2--2--3--3--3--5--5--5--

Stave 4:

E|-----------------------------------------------------------------------
B|-----------------------------------------------------------------------
G|-----------------------------------------------------------------------
D|-----------------------------------------------------------------------
A|--------------------------7--------------------------------------------
E|--0--0--2--3--2--3--2--0-----7--8--7--2--2--2--2--2--3--3--3--5--5--5--

Stave 5:

E|--------------------------------------------------------
B|--------------------------------------------------------
G|--------------------------------------------------------
D|--------------------------------------------------------
A|-----------------------7--------------------------------
E|--0--0--2--3--2--3--0-----7--8--7--0--2--3--5--3--2--3--

Stave 6:

E|--------------------------------------------------
B|--------------------------------------------------
G|--------------------------------------------------
D|--------------------------------------------------
A|--------------7--7--------5--5--------3--3--2--3--
E|--0--0--0--0--------0--0--------0--0--------------

Stave 7:

E|--------------------------------------------------------------------------------
B|--------------------------------------------------------------------------------
G|--------------------------------------------------------------5-----------------
D|--------------------------------------------------------------------5--4--------
A|--------------------------------------------------2--3-----------3--------3--2--
E|--0-----------2--3--------3--4--3--3--1--0--------------------------------------

Stave 8:

E|--
B|--
G|--
D|--
A|--
E|--

http://www.guitartabcreator.com
Guitar Tab Creator is intended to store guitar tab created through the tool. It currently does not support in-line text editing. Any text you place in here will be lost. If you need to comment on your tab, please use the "Tab Notes" section located below.