Sound will begin in 5 seconds

The Tragic Prince Guitar Cover

Chords
01234567891011121314151617181920212223
E
B
G
D
A
E
B
0 1 2 3 4 5 6 7 8 9 10 11 12 13 14 15 16 17 18 19 20 21 22 23
Song Science #1: How Pros Use 6 Chords to Write Hit Songs
(/) Slide Up  (\) Slide Down  (h) Hammer On  (p) Pull Off  (b) Bend (r) Release (v) Vibrato

Stave 1:

E|-------------------------------------------------------------------------------------
B|---------------------------------------------------------------------------------10--
G|--------------7--6-----9b10--8---------8--------------------------------7--6--9------
D|--8--7--5-----------7-----------9--10-----10----------------8--7--5------------------
A|-----------5----------------------------------11--9--10--------------5---------------
E|-------------------------------------------------------------------------------------

Stave 2:

E|---------8--8--10--11--8-----------
B|--9--11-------------------9--7--8--
G|-----------------------------------
D|-----------------------------------
A|-----------------------------------
E|-----------------------------------

Stave 3:

E|---------8--8--10--11--11b13--10--
B|--9--11---------------------------
G|----------------------------------
D|----------------------------------
A|----------------------------------
E|----------------------------------

Stave 4:

E|---------------------------------------------------------------------
B|---------------------------------------------------------------------
G|--------5b7--5--3--5--2--3--2--------------5b7--5--3--2--3--2--------
D|--3--5-------------------------3--5--3--5----------------------3-----
A|------------------------------------------------------------------5--
E|---------------------------------------------------------------------

Stave 5:

E|---------------------------------------------------------------------
B|----------------------------------3b5--3--2v-------------------------
G|--------5b7--5--3--5--1--2--1-----------------------------5--7b8b7v--
D|-----5-------------------------2--------------------4--7-------------
A|--6-------------------------------------------5--6-------------------
E|---------------------------------------------------------------------

Stave 6:

E|-----------------------------------------------
B|-----------------------------------------------
G|-----------5-----------5-----------5--5--5--5--
D|-----------3-----------2-----------3--2--2--2--
A|-----------3-----------3-----------3--3--2--3--
E|--3--3--3-----3--3--3-----3--3--3--------------

Stave 7:

E|-----------------------------
B|-----------------------------
G|-----------------------5-----
D|-----------5-----------3--7--
A|--6--9--5--3--6--9--5--3--5--
E|--4--6--3-----4--6--3--------

http://www.guitartabcreator.com
Guitar Tab Creator is intended to store guitar tab created through the tool. It currently does not support in-line text editing. Any text you place in here will be lost. If you need to comment on your tab, please use the "Tab Notes" section located below.