Sound will begin in 5 seconds

Stevie Ray Vaughan - Testify(Live at El Mocambo1)

Chords
01234567891011121314151617181920212223
E
B
G
D
A
E
B
0 1 2 3 4 5 6 7 8 9 10 11 12 13 14 15 16 17 18 19 20 21 22 23
Song Science #1: How Pros Use 6 Chords to Write Hit Songs
(/) Slide Up  (\) Slide Down  (h) Hammer On  (p) Pull Off  (b) Bend (r) Release (v) Vibrato

Stave 1:

E|-------------------------------------------------------------------------------------------------
B|----------------------8-----------------8-----------------8-----------------8-----------------8--
G|----------------------7-----------------7-----------------7-----------------7-----------------7--
D|----------------------6-----------------6-----------------6-----------------6-----------------6--
A|----------5--6--7-----7-----5--6--7-----7-----5--6--7-----7-----5--6--7-----7-----5--6--7-----7--
E|-----5h7-----------0-----7-----------0-----7-----------0-----7-----------0-----7-----------0-----

Stave 2:

E|-------------------------------------------------------------------------------------------------
B|-------------------8-----------------8-----------------------------------------------------------
G|-------------------7-----------------7--------------------------8---14b16b14p12------12----------
D|-------------------6-----------------6--------------------------7v---------------14------14------
A|-------5--6--7-----7-----5--6--7-----7-----5--6--7-------------------------------------------14--
E|--5h7-----------0-----7-----------0-----7-----------3--5--6--7-----------------------------------

Stave 3:

E|-------------12--------------------------------------------------------------12------12--15b17--15v--
B|---------12------15---------15-------------------------------------------12------12------------------
G|--14b16--------------14b16------14p12------12---------------------14b16------------------------------
D|---------------------------------------14------14p12------12--14-------------------------------------
A|------------------------------------------------------14---------------------------------------------
E|-----------------------------------------------------------------------------------------------------

Stave 4:

E|--12h14p12----------12---------------------------------------------------------------------------
B|------------15--12------15-----15--------------------------------------------------------12------
G|----------------------------14b16--16b14--12------12--14b16v------14b16--12--14----------12------
D|----------------------------------------------14--------------14-----------------14--14------14--
A|-------------------------------------------------------------------------------------------------
E|-------------------------------------------------------------------------------------------------

Stave 5:

E|---------------------12---------12---------12---------12------------12---------12--12h14p12----------
B|-----------------12------15b17------15b17------15b17------15b17---------15b17----------------15--12--
G|------12--14b16--------------------------------------------------------------------------------------
D|--14-------------------------------------------------------------------------------------------------
A|-----------------------------------------------------------------------------------------------------
E|-----------------------------------------------------------------------------------------------------

Stave 6:

E|--12-----------------------------------------------------------------------------------------------------
B|------15-----15------------------------------------------------------------------------------------------
G|----------14b16--16b14p12------12---------------------12b14--12------------------------------------------
D|---------------------------14------14p12------12--14-------------14p12----------------------------12h14--
A|------------------------------------------14----------------------------14--13--12h13p12-----------------
E|------------------------------------------------------------------------------------------15--12---------

Stave 7:

E|-------------------------14--
B|--12--14-12--------------14--
G|--12--14p12--------------14--
D|-------------14--12------13--
A|---------------------14--14--
E|-----------------------------

Stave 8:

E|--17b19v--15--17b19--15--15--17-------15------------12------------------------------------------------
B|---------------------------------17v------17p15\12------12--15b17b15-----15-------------15b17---------
G|----------------------------------------------------------------------14b16--16b14--12---------15\14--
D|------------------------------------------------------------------------------------------------------
A|------------------------------------------------------------------------------------------------------
E|------------------------------------------------------------------------------------------------------

Stave 9:

E|-----------------12------12--15b17--15v--12h14p12----------12----------------------------------------
B|-------------12------12----------------------------15--12------15-----15--15-15----------12------12--
G|--12--14b16--------------------------------------------------------14b16--16b14----------12------12--
D|---------------------------------------------------------------------------------14--14------14------
A|-----------------------------------------------------------------------------------------------------
E|-----------------------------------------------------------------------------------------------------

Stave 10:

E|------------------------------------------------------------------------------------------------------
B|--14-15b14--12----------12--14-15b14--12------14--12--------------------------------------------------
G|--14b15-14--12----------12--14b15-14--12------14--12---------------------12b14b12v--------------------
D|----------------14--14--------------------14----------14p12------12--14-------------12h14p12----------
A|-------------------------------------------------------------14-------------------------------14--13--
E|------------------------------------------------------------------------------------------------------

Stave 11:

E|-----------------------------------------------------------------------14--
B|-------------------------------------------------------12--------------14--
G|-------------------------------------------------------12--------------14--
D|--------------------12--14--12------------------12h14------14--12------13--
A|--12h13p12----------------------14--13--12-------------------------14--14--
E|------------15--12--------------------------15-----------------------------

http://www.guitartabcreator.com
Guitar Tab Creator is intended to store guitar tab created through the tool. It currently does not support in-line text editing. Any text you place in here will be lost. If you need to comment on your tab, please use the "Tab Notes" section located below.