Sound will begin in 5 seconds

Kerry Marshall Jr. - Hotline Bling (youtube cover)

01234567891011121314151617181920212223
E
B
G
D
A
E
B
0 1 2 3 4 5 6 7 8 9 10 11 12 13 14 15 16 17 18 19 20 21 22 23
Song Science #1: How Pros Use 6 Chords to Write Hit Songs
(/) Slide Up  (\) Slide Down  (h) Hammer On  (p) Pull Off  (b) Bend (r) Release (v) Vibrato

Stave 1:

E|--10\2---------------------------------------------------------
B|--------8p10--8--6--5----------------5p6p5---------------------
G|-----------------------7/9\7/8\7\7v---------7--5---------------
D|--------------------------------------------------5p7/8\7\5\0--
A|---------------------------------------------------------------
E|---------------------------------------------------------------

Stave 2:

E|---------------------------------------------------------------------------------------------
B|-----------5p6p5--------------------5p6p5-----------------------------------5p6p5------------
G|------------------7--5--7/9--5v------------7/8\7p5--7/9--5--5v---------------------7/8\7--5--
D|--5--5--5-------------------------------------------------------7--5p7v----------------------
A|---------------------------------------------------------------------------------------------
E|---------------------------------------------------------------------------------------------

Stave 3:

E|---------------------------------------------------8--8--8------8--8--8p10\0---------------------
B|--------------5p6p5-----------------------------------------10----------------8/10--8/10\8p6--6--
G|--7/9--5v------------7/8\7p5--7/9--5--5v---------------------------------------------------------
D|------------------------------------------7--5p7v------------------------------------------------
A|-------------------------------------------------------------------------------------------------
E|-------------------------------------------------------------------------------------------------

Stave 4:

E|---------------8--8--8------8--8--8p10\0----------------------------------
B|--6p8--8/10\2-----------10----------------8/10--8/10\8p6--6--6p8--8/10\2--
G|--------------------------------------------------------------------------
D|--------------------------------------------------------------------------
A|--------------------------------------------------------------------------
E|--------------------------------------------------------------------------

Stave 5:

E|---------------------------------5--5--5--5--5p6p5---------------------5p6p5--5--5--5--5p6p5--
B|----------------------------------------------------8/9\8p6--6p8--8\0-------------------------
G|--5-----5-----5-----5-----5/7\1---------------------------------------------------------------
D|-----7-----7-----7-----7----------------------------------------------------------------------
A|----------------------------------------------------------------------------------------------
E|----------------------------------------------------------------------------------------------

Stave 6:

E|-----------------------5--5--5--5--8p5-----------------------------------
B|--8/9\8p6--6p8--8--8v-------------------8/9\8p6--6p8--8--8/10--6p8v--\0--
G|-------------------------------------------------------------------------
D|-------------------------------------------------------------------------
A|-------------------------------------------------------------------------
E|-------------------------------------------------------------------------

Stave 7:

E|---------------------------------5--5--5--5--5p6p5---------------------5--5--5--5p6p5-----------
B|----------------------------------------------------8/9\8p6--6p8--8\0------------------8/9\8p6--
G|--5-----5-----5-----5-----5p7\0-----------------------------------------------------------------
D|-----7-----7-----7-----7------------------------------------------------------------------------
A|------------------------------------------------------------------------------------------------
E|------------------------------------------------------------------------------------------------

Stave 8:

E|--------------------------------------------------------------------------
B|--6p8--8/10--8/9\8--6p8p6--5p6p5------------------------------------------
G|----------------------------------7/8\7--5--5--7/10--7/8\7--5v------------
D|----------------------------------------------------------------5--5p7\0--
A|--------------------------------------------------------------------------
E|--------------------------------------------------------------------------

http://www.guitartabcreator.com
Guitar Tab Creator is intended to store guitar tab created through the tool. It currently does not support in-line text editing. Any text you place in here will be lost. If you need to comment on your tab, please use the "Tab Notes" section located below.