Sound will begin in 5 seconds

John Mayer Solo - Texas Flood Rock And Roll Hall Of Fame 2015

Chords
01234567891011121314151617181920212223
E
B
G
D
A
E
B
0 1 2 3 4 5 6 7 8 9 10 11 12 13 14 15 16 17 18 19 20 21 22 23
Song Science #1: How Pros Use 6 Chords to Write Hit Songs
(/) Slide Up  (\) Slide Down  (h) Hammer On  (p) Pull Off  (b) Bend (r) Release (v) Vibrato

Stave 1:

E|----------3------------------------------------------------
B|-------3-----6/8--8-----6h3--------------------6b8--3v--3--
G|-----------------------------5b7--5--3v--------------------
D|--5b7------------------------------------5-----------------
A|--------------------------------------------5--------------
E|-----------------------------------------------------------

Stave 2:

E|---------------------------------------------------------------------------------------------------------
B|--------8v--8v--10b12--10b12--8-----8--8--11--11--13h11--13b15b13--11-----------11------13b15b13--11b12--
G|--7--7-----------------------------------------------------------------12--12v------12-------------------
D|---------------------------------------------------------------------------------------------------------
A|---------------------------------------------------------------------------------------------------------
E|---------------------------------------------------------------------------------------------------------

Stave 3:

E|-------------------------------------------------------------------------------------------------
B|----------13b15b13--11b12--13b15--11--13--13b15--11-------------------6--6v-----6--8-------------
G|--12--12---------------------------------------------12v-----------7---------7--------7\5--3-----
D|----------------------------------------------------------14\2--------------------------------5--
A|-------------------------------------------------------------------------------------------------
E|-------------------------------------------------------------------------------------------------

Stave 4:

E|----------------3------------------------------------------------------------------------------------
B|-------------3-----7p3-------------7-----------------------------------------------------------------
G|-----3--5b7-------------6\5--3--------6\5--3-------------------5--7--6\5-----6\5-----6\5-----5b6-----
D|--5-----------------------------5-------------5-------5-----8-------------8-------8-------8-------8--
A|-------------------------------------------------5/7-----7-------------------------------------------
E|-----------------------------------------------------------------------------------------------------

Stave 5:

E|--------------------------------------------------------------------------------------
B|--5--6--6--6--6--6--6--6--6-----------------------------------------------------------
G|--6--7--7--7--7--7--7--7-----6\5--3-----5/6\5p3-----3----------3----------------------
D|-------------------------------------5-----------5-----5p3-----3-------------------5--
A|------------------------------------------------------------5-----5--3h4--3-----------
E|-----------------------------------------------------------------------------6--3-----

Stave 6:

E|----------------------3--6--3--3h5h3-----3----------------------------------------------------------
B|----------------3--5-----5------------5--------3------------------------------8v--10b12--10b12--8v--
G|--4--5-----3h4------------------------------5-----5---------------------7--9------------------------
D|--3--5--5-------------------------------------------------5--7--5--7/9------------------------------
A|-----------------------------------------------------5/7--------------------------------------------
E|----------------------------------------------------------------------------------------------------

Stave 7:

E|-------------------------------------8--10----------------10b13b10b13--10--8-----------------------
B|--8--8--11--11--11b12--11b13--11b13---------10b12--8v-------------------------10b12--10--8-----8v--
G|-------------------------------------------------------9------------------------------------9------
D|---------------------------------------------------------------------------------------------------
A|---------------------------------------------------------------------------------------------------
E|---------------------------------------------------------------------------------------------------

Stave 8:

E|--------------------------------------------------------------------------
B|-----8v--8--11b13--11b13--13b11--8v-----8--8--11b12--8--8--11v--13b14b15--
G|--9-----------------------------------------------------------------------
D|--------------------------------------------------------------------------
A|--------------------------------------------------------------------------
E|--------------------------------------------------------------------------

Stave 9:

E|-----------------15--18b20v--18b20b18--15------15--18--15v--------20b22v--20b22b22b22--20--18------------
B|--15--18--18b19----------------------------15---------------17\5-------------------------------20v--20v--
G|---------------------------------------------------------------------------------------------------------
D|---------------------------------------------------------------------------------------------------------
A|---------------------------------------------------------------------------------------------------------
E|---------------------------------------------------------------------------------------------------------

Stave 10:

E|----------18b20--18------------v----------20b22\9-----20b22v--20b22--20b21b21--19b20b20--18--18v------------
B|--20--20-------------20v--20v-----20--20----------------------------------------------------------20--------
G|------------------------------------------------------------------------------------------------------19\5--
D|------------------------------------------------------------------------------------------------------------
A|------------------------------------------------------------------------------------------------------------
E|------------------------------------------------------------------------------------------------------------

Stave 11:

E|----------------------3--------------------------------------------------------------------------------------
B|-------------------3-----6p3-------------6----------------------------------------------------------------8--
G|--5--3-----3--5b7-------------6b5--3--------6b5--3--------3--------------------------------------------7-----
D|--------5-----------------------------5-------------5--5-----5p3-------5--8b7p5-----5p7--5-----5--7/9--------
A|------------------------------------------------------------------5/7------------7----------7----------------
E|-------------------------------------------------------------------------------------------------------------

Stave 12:

E|--------------------------------------------------------------------------------3-----3--6b5--3-----3--
B|--8--8--8--------------------------------------------------------------------3-----3-------------5-----
G|--9--9--9--7--5h7--5h7p5\3-----3--------------------------3-------------5b7----------------------------
D|----------------------------5-----5p3------------------5-----5p3---------------------------------------
A|---------------------------------------5--3h4p3-------------------5------------------------------------
E|-------------------------------------------------6--3--------------------------------------------------

Stave 13:

E|---------------3-------------------------------------------------------
B|--6p3-------3-----6p3-------------6------------------------------------
G|-------5b6-------------6\5--3--------6b5--3-----3v--5--5b6b5--3v-------
D|-------------------------------5-------------5--------------------5\2--
A|-----------------------------------------------------------------------
E|-----------------------------------------------------------------------

Stave 14:

E|-------------10-----------------10---------------------10-----------------------------------------------------------
B|---------10------10--13b15v---------13--10---------10------13p10-----------------13---------------------------------
G|--10/12-------------------------------------12b14-----------------13b12--10----------13b12--10------10--------------
D|-----------------------------------------------------------------------------12-----------------12------12--10------
A|----------------------------------------------------------------------------------------------------------------12--
E|--------------------------------------------------------------------------------------------------------------------

Stave 15:

E|-------8----------------8--10p9p8---------8--10p9p8---------8--10p9p8---------8--10p9p8---------8--10--
B|----------8--11--11b12-------------11b12-------------11b12-------------11b12-------------11b12---------
G|--7/9--------------------------------------------------------------------------------------------------
D|-------------------------------------------------------------------------------------------------------
A|-------------------------------------------------------------------------------------------------------
E|-------------------------------------------------------------------------------------------------------

Stave 16:

E|--10b13b10b13--10--8-----------------------------------------------------------------------
B|----------------------10b12b10--8-----8v-----10b12b10--8-----8--8v--------8--11b13b11--8v--
G|-----------------------------------9------9---------------9------------9-------------------
D|-------------------------------------------------------------------------------------------
A|-------------------------------------------------------------------------------------------
E|-------------------------------------------------------------------------------------------

Stave 17:

E|----------------------------------------
B|----------------------------------------
G|--5b7--5--3v----------------------------
D|--------------5-----3----------------3--
A|-----------------5-----5--4--3--1/2--2--
E|----------------------------------------

http://www.guitartabcreator.com
Guitar Tab Creator is intended to store guitar tab created through the tool. It currently does not support in-line text editing. Any text you place in here will be lost. If you need to comment on your tab, please use the "Tab Notes" section located below.