Sound will begin in 5 seconds

John Mayer Solo Guess Who(BB King) Hollywood Bowl 9-5-12

Chords
01234567891011121314151617181920212223
E
B
G
D
A
E
B
0 1 2 3 4 5 6 7 8 9 10 11 12 13 14 15 16 17 18 19 20 21 22 23
Song Science #1: How Pros Use 6 Chords to Write Hit Songs
(/) Slide Up  (\) Slide Down  (h) Hammer On  (p) Pull Off  (b) Bend (r) Release (v) Vibrato

Stave 1:

E|--------------------------------------------------------9--11--11v--b13---------9--11---------------------
B|--11b13--13b11p9------9--9v------11b13------11v--11b13-------------------11b13---------11b13--11b13--11v--
G|------------------10---------10---------10----------------------------------------------------------------
D|----------------------------------------------------------------------------------------------------------
A|----------------------------------------------------------------------------------------------------------
E|----------------------------------------------------------------------------------------------------------

Stave 2:

E|--11b13b11-----9----------------------------------------------------------------11v--11/13--16--18b20b18b
B|------------9-----11b12------11b13b11b13--11b13b12b11--11b13b11b13b11p9--11/13---------------------------
G|-------------------------10------------------------------------------------------------------------------
D|---------------------------------------------------------------------------------------------------------
A|---------------------------------------------------------------------------------------------------------
E|---------------------------------------------------------------------------------------------------------

Stave 3:

E|--16-------16-------------------------------------------------------------------------------------------------------
B|------18v--16h18p16------------------------------------------16--19b21b19b21--16------------------------------------
G|-------------------------16------------------18------16--18---------------------------18------16--------------------
D|---------------------18------18------16--18------18-------------------------------18------18------18p16-------------
A|---------------------------------18----------------------------------------------------------------------18--16\15--
E|--------------------------------------------------------------------------------------------------------------------

Stave 4:

E|-------------------------------------------------9--9--11------------------------------------------------------
B|------------------------------------------11b13------------11b13--9--11------9v------11b13b11b13--11b13b11b13--
G|-----------------------------16\------10---------------------------------10------10----------------------------
D|---------18------18------18------------------------------------------------------------------------------------
A|--14b15------16------18----------------------------------------------------------------------------------------
E|---------------------------------------------------------------------------------------------------------------

Stave 5:

E|----------------------------4---------------------------------------4-------4-----------9b11b9b11--6b8--4v--
B|--12b14--11b13--9v-------4-----7p4-----4----------------------------6--4----6--9--9--9----------------------
G|--------------------4/5-------------6-----4----------------------------4h5----------------------------------
D|---------------------------------------------6--4-----------------------------------------------------------
A|---------------------------------------------------6--4h5---------------------------------------------------
E|-----------------------------------------------------------7--4---------------------------------------------

Stave 6:

E|--4---------------------------------------------4------------4----------------------------------------------
B|-----7p4-----4----------------------------4-----6--7p4------------------------------------------------------
G|----------6-----4/5-----------------------4-------------5h6-----4--6-----4----------------------------------
D|---------------------6--4---------------------------------------------6-----6--4-------6-----8b9--6-----6v--
A|---------------------------6--4--5------------------------------------------------6/8-----8----------8------
E|------------------------------------7--4--------------------------------------------------------------------

Stave 7:

E|------------------------------9--11/16--18b20--18b20--18v--16----------------------16--
B|---------9--11b13v-----11b13-----------------------------------18b19--18--16--16v--18--
G|------8--------------------------------------------------------------------------------
D|--10-----------------------------------------------------------------------------------
A|---------------------------------------------------------------------------------------
E|---------------------------------------------------------------------------------------

Stave 8:

E|-----------------------------------------------------------------------4--9v---------11--------------
B|-----4----4h6p4-----4----4----6--4---------------2-----4---------------4------11b13------9v--9v------
G|-----4h5------------4h5--4h5--6--4h5--------2h3-----4--4h5----------5--5-------------------------10--
D|--6--------------6--------------------6--4------------------6p4-----6--------------------------------
A|-----------------------------------------------------------------6-----------------------------------
E|-----------------------------------------------------------------------------------------------------

Stave 9:

E|--9------11-------------------------------------------------16--20--16--
B|-----12------9v--9v------11b13--12b14--13b15--14b15--15b16--------------
G|---------------------10-------------------------------------------------
D|------------------------------------------------------------------------
A|------------------------------------------------------------------------
E|------------------------------------------------------------------------

http://www.guitartabcreator.com
Guitar Tab Creator is intended to store guitar tab created through the tool. It currently does not support in-line text editing. Any text you place in here will be lost. If you need to comment on your tab, please use the "Tab Notes" section located below.