Sound will begin in 5 seconds

John Mayer Solo - Born Under a Bad Sign

Chords
01234567891011121314151617181920212223
E
B
G
D
A
E
B
0 1 2 3 4 5 6 7 8 9 10 11 12 13 14 15 16 17 18 19 20 21 22 23
Song Science #1: How Pros Use 6 Chords to Write Hit Songs
(/) Slide Up  (\) Slide Down  (h) Hammer On  (p) Pull Off  (b) Bend (r) Release (v) Vibrato

Stave 1:

E|-----------------------------------------------------------------------------------13b14--12b13------
B|-----------------------------12--9------------------------------------14--14--14v----------------14--
G|----------9-------9b11b9b10---------11b13--11--9------9v----------13---------------------------------
D|--11--11-----11v----------------------------------11------11-----------------------------------------
A|--------------------------------------------------------------11-------------------------------------
E|-----------------------------------------------------------------------------------------------------

Stave 2:

E|--12-----------9-------------------------------------------------------------------12--9v--
B|------14p12\9-----12p9-----------------------------------------------12--------------------
G|------------------------12\11--9h11--9------------9v---------------------12\11--9----------
D|----------------------------------------11p9----------11p9---------------------------------
A|----------------------------------------------11------------11p9---------------------------
E|------------------------------------------------------------------12b----------------------

Stave 3:

E|------------------------------------------------------------------------------------------------
B|--12p9--11b12p9-----------------------------------12--------------------------------------------
G|-----------------11--9-----------9--11--9--11--9------12\11--9--11--9------9--------------------
D|------------------------11--11v----------------------------------------11-----11--9-------------
A|-------------------------------------------------------------------------------------11--9------
E|--------------------------------------------------------------------------------------------12--

Stave 4:

E|---------9--12--9--14b16--14--12-----------12b13--13b14-------17/20--------
B|--12b14---------------------------14--14v----------------14v---------20\5--
G|---------------------------------------------------------------------------
D|---------------------------------------------------------------------------
A|---------------------------------------------------------------------------
E|---------------------------------------------------------------------------

Stave 5:

E|------------------------------------------------------------------------
B|------------------12p9------9--------------------12/14\12/14--14--------
G|--9v--11p9--------------11-----9b10---------------------------14\11--9--
D|------------11p9---------------------11p9-------------------------------
A|-------------------------------------------11p9-------------------------
E|------------------------------------------------------------------------

Stave 6:

E|---------9------------------9------------------------------------------------------------------------
B|--12b14-----12p9---------9-----12p9----------------12----------------11--9------------9--------------
G|------------------11b13--------------12\11--9----------12\11--9------11--9------------9--------------
D|-----------------------------------------------11----------------11---------11p9---------11p9--------
A|----------------------------------------------------------------------------------11-----------11p9--
E|-----------------------------------------------------------------------------------------------------

Stave 7:

E|---------9--12--9v--11b12b11p9--12h14p12b13--14b16--16b18--14-------------------------------
B|--12b14--------------------------------------------------------17--14v--14v------14--17b20--
G|-----------------------------------------------------------------------------16-------------
D|--------------------------------------------------------------------------------------------
A|--------------------------------------------------------------------------------------------
E|--------------------------------------------------------------------------------------------

Stave 8:

E|---------------------------------------16v--18--------------9-9---9-------------------------
B|--14------17--14v--16------14v--16b18-----------16b18--14v--9h11--9------------9------------
G|------16---------------15--------------------------------------------11p9------9------------
D|---------------------------------------------------------------------------11-----11p9------
A|----------------------------------------------------------------------------------------11--
E|--------------------------------------------------------------------------------------------

Stave 9:

E|--9-9---9------------9-9---9------------9-9---9-------------------------------
B|--9h11--9------------9h11--9------------9h11--9------------9------------------
G|-----------11p9---------------11p9---------------11p9------9------------------
D|-----------------11-----------------11-----------------11-----11p9------------
A|--------------------------------------------------------------------11p9------
E|--------------------------------------------------------------------------12--

http://www.guitartabcreator.com
Guitar Tab Creator is intended to store guitar tab created through the tool. It currently does not support in-line text editing. Any text you place in here will be lost. If you need to comment on your tab, please use the "Tab Notes" section located below.