Sound will begin in 5 seconds

Jessie J covers Michael Jackson's Rock With You

Chords
01234567891011121314151617181920212223
E
B
G
D
A
E
B
0 1 2 3 4 5 6 7 8 9 10 11 12 13 14 15 16 17 18 19 20 21 22 23
Song Science #1: How Pros Use 6 Chords to Write Hit Songs
(/) Slide Up  (\) Slide Down  (h) Hammer On  (p) Pull Off  (b) Bend (r) Release (v) Vibrato

Stave 1:

E|--9-9------------4--6-------------------------4--9--9-9------------4--6--2--4--2--4--
B|--9h11--9-9---6--4--6--9-9---6--6-6-----------4--7--9h11--9-9---6--4--6--2--4--2--4--
G|--------8h10--6--5--7--8h10--6--6-6-----------5--8--------8h10--6--5--7--3--5--3--5--
D|--------------6--6--8-----------6h8--8/9\8p6--6--9-----------------6--8--4--6--4--6--
A|-------------------------------------------------------------------------------------
E|-------------------------------------------------------------------------------------

Stave 2:

E|--6-----4--6-----4--6--4--9--2-4--0--0-----0--0-----4--
B|--6--6--4--6--6--4--6--4--7--2-4--2--4-----2--4--6--4--
G|--6--5--5--6--5--5--6--5--8--3-5--3--5-----3--5--6--5--
D|--4--4--6--4--4--6--8--6--9--4/6--4--6-----4--6--8--6--
A|--6--------6--------9--6----------------------------6--
E|-----4--6-----4--6-----4----------------------------4--

Stave 3:

E|--6--4--6--6--4--9--6--4--6--2--4--2--4--
B|--6--4--6--6--4--7--6--4--6--2--4--2--4--
G|--6--5--7--6--5--8--6--5--7--3--5--3--5--
D|-----6--8-----6--9-----6--8--4--6--4--6--
A|-----------------------------------------
E|-----------------------------------------

Stave 4:

E|--6--6--4--6h7p6--------------6--6--4-----4--9--2--4--------------------4--
B|--6--6--4---------9--7--6-----6--6--4--6--4--7--2--4--2--4--6--2--4--6--4--
G|--6--5--5------------------8--6--5--5--6--5--8--3--5--3--5--6--3--5--6--5--
D|--4--4--6---------------------4--4--6--8--6--9--4--6--4--6--8--4--6--8--6--
A|--6---------------------------6--------9--6-----------------------------6--
E|-----4--6------------------------4--6-----4-----------------------------4--

Stave 5:

E|--6--6--------6--6-----6--2--4--
B|--6--6--------6--6--6--4--2--4--
G|--6--5--6--7--6--6--6--4--3--5--
D|-----4--6--7--5--7--6-----4--6--
A|--------8--9--6--8--8-----------
E|--6--4--------------------------

Stave 6:

E|--6--4--6--6--4--9--6--4--6--9-----6--4--6--6--4--9--6--4--6--9--10--
B|--6--4--6--6--4--7--6--4--6--7-----6--4--6--6--4--7--6--4--6--7--8---
G|--6--5--7--6--5--8--6--5--7--8-----6--5--7--6--5--8--6--5--7--8--9---
D|-----6--8-----6--9-----6--8--9--------6--8-----6--9-----6--8--9--10--
A|---------------------------------------------------------------------
E|---------------------------------------------------------------------

Stave 7:

E|--7--5--7--7--5--10--7--5--7--3--5--3--5--3--5--
B|--7--5--7--7--5--8---7--5--7--3--5--3--5--3--5--
G|--7--6--8--7--6--9---7--6--8--4--6--4--6--4--6--
D|-----7--9-----7--10-----7--9--5--7--5--7--5--7--
A|------------------------------------------------
E|------------------------------------------------

http://www.guitartabcreator.com
Guitar Tab Creator is intended to store guitar tab created through the tool. It currently does not support in-line text editing. Any text you place in here will be lost. If you need to comment on your tab, please use the "Tab Notes" section located below.