Sound will begin in 5 seconds

Gary Clark Jr. Solo - Texas Flood Rock And Roll Hall Of Fame 2015

Chords
01234567891011121314151617181920212223
E
B
G
D
A
E
B
0 1 2 3 4 5 6 7 8 9 10 11 12 13 14 15 16 17 18 19 20 21 22 23
Song Science #1: How Pros Use 6 Chords to Write Hit Songs
(/) Slide Up  (\) Slide Down  (h) Hammer On  (p) Pull Off  (b) Bend (r) Release (v) Vibrato

Stave 1:

E|-----8b10b10--------8b10b10b10--7b8--6b7--8b10b10--6----------6b7-----8b10b10b10b10b10b8b10--
B|--8--------------8------------------------------------8v--8v---------------------------------
G|---------------------------------------------------------------------------------------------
D|---------------------------------------------------------------------------------------------
A|---------------------------------------------------------------------------------------------
E|---------------------------------------------------------------------------------------------

Stave 2:

E|--7b8-----------6--8b10b10--7b8--8b10--7b8--8b10--7b8--6-----6--7b8------6b7-----------------
B|----------8--8--------------------------------------------8----------8v----------8--5--------
G|---------------------------------------------------------------------------------------7b9v--
D|---------------------------------------------------------------------------------------------
A|---------------------------------------------------------------------------------------------
E|---------------------------------------------------------------------------------------------

Stave 3:

E|------------------------3h5--3-----------------------------------3------------------------
B|--3--3--6b7--3--3--6b7----------6--3--6--3-----------------------3-----3--3--6b7--3--6b7--
G|--------------------------------------------5/6\5--3-----3--5b7---------------------------
D|------------------------------------------------------5-----------------------------------
A|------------------------------------------------------------------------------------------
E|------------------------------------------------------------------------------------------

Stave 4:

E|----------------------------------------------3-------3-----------3-----------------------------------
B|-----3--6b7b8b7b8--6--3--------------------3-----6b7-----3-----------6--3-----------------------------
G|-------------------------5b7b7--3-----5b7-------------------5b7v-----------5b7b7b5--3-----3-----3-----
D|-----------------------------------5---------------------------------------------------5-----5--------
A|---------------------------------------------------------------------------------------------------5--
E|------------------------------------------------------------------------------------------------------

Stave 5:

E|---------15------15------18b20b18--15--------------20b22b22b22b22b22b22b22b22b22b22b22b22b22b22b22b22--
B|--13/15------15------15----------------15--18b20v------------------------------------------------------
G|-------------------------------------------------------------------------------------------------------
D|-------------------------------------------------------------------------------------------------------
A|-------------------------------------------------------------------------------------------------------
E|-------------------------------------------------------------------------------------------------------

Stave 6:

E|--19b20--20b22b22b22--18-----------------------------------------------------3---------------
B|--------------------------20--6--3-------6--3--6-----3---------------------------------------
G|------------------------------------5b6-----------5-----5/6\5--3-----3--5b7-----5b6b5--3-----
D|------------------------------------------------------------------5-----------------------5--
A|---------------------------------------------------------------------------------------------
E|---------------------------------------------------------------------------------------------

Stave 7:

E|-------------3h5p3--------3---------------------------------------------------------------------3--3--
B|--3--3--6b7---------6--3-----6--3----------------------------------------------------3--3--6b7--------
G|-----------------------------------5/7\5--3-----3--5b7b7b7b5--3--5-----3b4----------------------------
D|---------------------------------------------5----------------------5-------5-------------------------
A|-------------------------------------------------------------------------------5----------------------
E|------------------------------------------------------------------------------------------------------

Stave 8:

E|-------------3----------3----------3----------3-------3----------3-------3------------------------
B|--3--3--6b7-----3--6b7-----3--6b7-----3--6b7-----6b7-----3--6b7-----6b7-----3--6-----3------------
G|----------------------------------------------------------------------------------5-----5/6\5--3--
D|--------------------------------------------------------------------------------------------------
A|--------------------------------------------------------------------------------------------------
E|--------------------------------------------------------------------------------------------------

Stave 9:

E|--------------------------------------------------------------3-------------3--
B|-----------------------------------------------------------3-----6--3--6b8-----
G|-----3--5b6b6b7b7b7b7b8b8b9b9b8b8b7b7b7b7--5b7--3-----5b7----------------------
D|--5------------------------------------------------5---------------------------
A|-------------------------------------------------------------------------------
E|-------------------------------------------------------------------------------

Stave 10:

E|---------------------------------5--
B|---------------------------------5--
G|--5--7b5--3-----3b4--------------5--
D|-------------5-------5-----------4--
A|------------------------3--4--5--5--
E|------------------------------------

http://www.guitartabcreator.com
Guitar Tab Creator is intended to store guitar tab created through the tool. It currently does not support in-line text editing. Any text you place in here will be lost. If you need to comment on your tab, please use the "Tab Notes" section located below.