Sound will begin in 5 seconds

Foo Fighters - Walk

Chords
01234567891011121314151617181920212223
E
B
G
D
A
E
B
0 1 2 3 4 5 6 7 8 9 10 11 12 13 14 15 16 17 18 19 20 21 22 23
Song Science #1: How Pros Use 6 Chords to Write Hit Songs
(/) Slide Up  (\) Slide Down  (h) Hammer On  (p) Pull Off  (b) Bend (r) Release (v) Vibrato

Stave 1:

E|------------7--------------------------7-------------------------7-------------------------7---------7--
B|-----10--------10-----10--------10--------10-----10--------9--------9-----10--------10--------10--------
G|--9------9---------9---------9------9---------9---------9-----9--------9---------7------7---------7-----
D|--------------------------------------------------------------------------------------------------------
A|--------------------------------------------------------------------------------------------------------
E|--------------------------------------------------------------------------------------------------------

Stave 2:

E|--------------7----------7/8--
B|------10---------10-----------
G|--10------10---------10-------
D|------------------------------
A|------------------------------
E|------------------------------

Stave 3:

E|--------------
B|--------------
G|--------4--7--
D|--7--2--4--7--
A|--7--2--2--5--
E|--5--0--------

Stave 4:

E|-----------
B|-----------
G|--9--9--7--
D|--7--9--7--
A|--0--7--5--
E|--------7--

Stave 5:

E|----------------
B|----------------
G|--7--9--10--12--
D|----------------
A|--5--7--8---10--
E|----------------

Stave 6:

E|------------------------
B|--10--9--10--9--10--10--
G|--9---9--9---9--11--10--
D|--7---------------------
A|--0---7--7---7--9---8---
E|------------------------

Stave 7:

E|-----------------------
B|-----------------------
G|--6--7--9--11--13--14--
D|-----------------------
A|--4--5--7--9---11--12--
E|-----------------------

Stave 8:

E|--9---7--10--10--10------
B|--10--9--6---7---6---10--
G|--9---9--7---7---7---9---
D|---------------------7---
A|---------------------0---
E|-------------------------

Stave 9:

E|---------------
B|---------------
G|--7--9--10--9--
D|---------------
A|--5--7--8---7--
E|---------------

Stave 10:

E|-----------------
B|-----------------
G|--14--12--9--12--
D|-----------------
A|--12--10--7--10--
E|-----------------

Stave 11:

E|--------2--2--0--
B|--2-----2--3--3--
G|--2--1--2--2--2--
D|--2--2--4--0--0--
A|--0--2--4--------
E|-----0--2--------

http://www.guitartabcreator.com
Guitar Tab Creator is intended to store guitar tab created through the tool. It currently does not support in-line text editing. Any text you place in here will be lost. If you need to comment on your tab, please use the "Tab Notes" section located below.