Sound will begin in 5 seconds

Foo Fighters - Congregation

Chords
01234567891011121314151617181920212223
E
B
G
D
A
E
B
0 1 2 3 4 5 6 7 8 9 10 11 12 13 14 15 16 17 18 19 20 21 22 23
Song Science #1: How Pros Use 6 Chords to Write Hit Songs
(/) Slide Up  (\) Slide Down  (h) Hammer On  (p) Pull Off  (b) Bend (r) Release (v) Vibrato

Stave 1:

E|--3--------2--2--2--------
B|--0--------3--3--3-----2--
G|--0--------2--2--2-----2--
D|--0--------0--0--0-----2--
A|--2--------------4--2--0--
E|--3--2--0-----------------

Stave 2:

E|-------------------------------------------------------------------------------------------------------
B|-------------------------------------------------------------------------------------------------------
G|--11b12--11--9v--7v--7--9--7--9b11--6v-----9b11--6v-----------11b12--9v--7v--7--9--7--9b11--6v---------
D|----------------------------------------9------------9--7---------------------------------------9--7v--
A|-------------------------------------------------------------------------------------------------------
E|-------------------------------------------------------------------------------------------------------

Stave 3:

E|--3-----0--2--2--------
B|--0--3--0--3--3-----2--
G|--0--2--0--2--2-----2--
D|--0--0--2--0--0-----2--
A|--2-----2-----4--2--0--
E|--3--2--0--------------

Stave 4:

E|--0--3--2--0--3-----
B|--0--0--3--0--0--2--
G|--0--0--2--0--0--2--
D|--2--0--0--2--0--2--
A|--2--2-----2--2--0--
E|--0--3-----0--3-----

Stave 5:

E|--------------------------------------
B|-----------10v------------------------
G|--7--9/11-------7--9/11--7v--7--9/11--
D|--------------------------------------
A|--------------------------------------
E|--------------------------------------

Stave 6:

E|--2--0--0--
B|--3--1--0--
G|--2--2--0--
D|--0--2--2--
A|-----0--2--
E|--------0--

Stave 7:

E|--2--0--3--
B|--3--1--0--
G|--2--0--0--
D|--0--2--0--
A|-----3--2--
E|--------3--

Stave 8:

E|--0---0---0---0---0--0--0--0--0--0--0--10-10--10--10-10--10-------------------------
B|--10--10--10--10--8--7--5--8--7--5--3--10h12--12--10h12--10-----------10----10------
G|-------------------------------------------------------------12--11v--11b12b11------
D|--------------------------------------------------------------------------------12--
A|------------------------------------------------------------------------------------
E|------------------------------------------------------------------------------------

Stave 9:

E|--0-0--0-------0--0--0--0------------3----7----10-----14--
B|--3/5--3--0-0--0--0--0--0--0-0--0-------------------------
G|----------2/4--------------4\2--0--2/4--4/7--7/11--11/14--
D|----------------------------------------------------------
A|----------------------------------------------------------
E|----------------------------------------------------------

Stave 10:

E|--12--12--12------12-----------------------15--15--15--17--19--14--14--12--10--
B|--12--12--15------12-----------------------15--15--15--15--15--10--10--10--10--
G|--12----------14------12--14------12-------------------------------------------
D|------------------------------14------14v--------------------------------------
A|-------------------------------------------------------------------------------
E|-------------------------------------------------------------------------------

Stave 11:

E|---------------------------12---------------------------
B|--5-5--8--8-b8--8---12-12--12--15-15--17-17-17b17-------
G|--7b9--10b12-10b12--14b16------17b19--19b21b21-21--21v--
D|--------------------------------------------------------
A|--------------------------------------------------------
E|--------------------------------------------------------

Stave 12:

E|--0--0-0--2--1--3--
B|--3--3b4--3--1--0--
G|----------2--2--0--
D|----------0--3--0--
A|-------------3--2--
E|-------------1--3--

Stave 13:

E|--10-----------------------------------------------------------------------
B|--10-----10--10--10--10--10--10--10--10--10--10--10--10--10----------0-----
G|--10-----10--10--10--10--10--10--10--10--10--10--10--10--10----------0-----
D|--12-----12--12--12--11--11--11--10--10--10--9---9---9---9---10--12--------
A|---------------------------------------------------------------------------
E|---------------------------------------------------------------------------

Stave 14:

E|------------------------------------------------------------------------------------10--
B|--10--10--10--------------------------------------------------10------13p10/13--10--10--
G|--10--10--10--12--12--12--10--10--10--9-------------------10------10----------------10--
D|--12--12--12--12--12--12--12--12--12--12--12\10--7/9--12--------------------------------
A|----------------------------------------------------------------------------------------
E|----------------------------------------------------------------------------------------

Stave 15:

E|--------------------------------------------------------------------------------------------------------------
B|--13--11--10p11p10\8p10p8\6p8p6\5--3--3--1-----3--1-----3--------3--1--3--------3--1-----3--1--------3--1--3--
G|--------------------------------------------2--------2--------2--------------2-----------------2--------------
D|--------------------------------------------------------------------------------------------------------------
A|--------------------------------------------------------------------------------------------------------------
E|--------------------------------------------------------------------------------------------------------------

Stave 16:

E|--------------13--------------------------------------------------------------------------------------------------------
B|--15--13--15------15--13--15------15--13--15------15--13--15------------------------------------------------------------
G|------------------------------14--------------13--------------12\9--12--10------10--------------10--12--12--12----------
D|----------------------------------------------------------------------------12------12--10--12------------------12--12--
A|------------------------------------------------------------------------------------------------------------------------
E|------------------------------------------------------------------------------------------------------------------------

http://www.guitartabcreator.com
Guitar Tab Creator is intended to store guitar tab created through the tool. It currently does not support in-line text editing. Any text you place in here will be lost. If you need to comment on your tab, please use the "Tab Notes" section located below.