Sound will begin in 5 seconds

Jared 2

Chords
01234567891011121314151617181920212223
E
B
G
D
A
E
B
0 1 2 3 4 5 6 7 8 9 10 11 12 13 14 15 16 17 18 19 20 21 22 23
(/) Slide Up  (\) Slide Down  (h) Hammer On  (p) Pull Off  (b) Bend (r) Release (v) Vibrato

Inro

E|----------0----------0--|--------0--------0-----0--|----------0----------0--|--------0--------0-----0--
C|-------0----------0-----|-----0--------0-----------|-------0----------0-----|-----0--------0-----------
G|--4/5--------5/7--------|--4--------2--------0-----|--4/5--------5/7--------|--4--------2--------0-----
C|------------------------|--------------------------|------------------------|--------------------------
A|------------------------|--------------------------|------------------------|--------------------------
F|------------------------|--------------------------|------------------------|--------------------------

Intro dmaj bass

E|----------0----------0--|--------0--------0-----0--|----------0----------0--|--------0--------0-----0--
C|-------0----------0-----|-----0--------0-----------|-------0----------0-----|-----0--------0-----------
G|--4/5--------5/7--------|--4--------2--------0-----|--4/5--------5/7--------|--4--------2--------0-----
C|--0---------------------|--------------------------|--0---------------------|--------------------------
A|------------------------|--------------------------|------------------------|--------------------------
F|------------------------|--------------------------|------------------------|--------------------------

Intro fmaj bass

E|----------0----------0--|--------0--------0-----0--|----------0----------0--|--------0--------0-----0--
C|-------0----------0-----|-----0--------0-----------|-------0----------0-----|-----0--------0-----------
G|--4/5--------5/7--------|--4--------2--------0-----|--4/5--------5/7--------|--4--------2--------0-----
C|------------------------|--------------------------|------------------------|--------------------------
A|------------------------|--------------------------|------------------------|--------------------------
F|--0---------------------|--------------------------|--0---------------------|--------------------------

Intro minor resolution

E|----------0----------0--|----------0-----0-----0--|----------0----------0--|----------0----------0--
C|-------0----------0-----|-------0-----------------|-------0----------0-----|-------0----------0-----
G|--4/5--------5/7--------|--7/9--------7-----5-----|--4/5--------5\4--------|--4\2--------2p0--------
C|------------------------|-------------------------|------------------------|------------------------
A|--0---------------------|-------------------------|------------------------|------------------------
F|------------------------|-------------------------|--2---------------------|------------------------

intro maj resolution

E|----------0----------0--|--------0--------0-----0--|----------0----------0--|--------0--------0-----0--
C|-------0----------0-----|-----0--------0-----------|-------0----------0-----|-----0--------0-----------
G|--4/5--------5/7--------|--4--------2--------0-----|--4/5--------5/7--------|--4--------2--------0-----
C|------------------------|--------------------------|------------------------|--------------------------
A|------------------------|--------------------------|------------------------|--------------------------
F|--0---------------------|--------------------------|--0---------------------|--------------------------

http://www.guitartabcreator.com
Guitar Tab Creator is intended to store guitar tab created through the tool. It currently does not support in-line text editing. Any text you place in here will be lost. If you need to comment on your tab, please use the "Tab Notes" section located below.