table rock sunrise

01234567891011121314151617181920212223
E
B
G
D
A
E
B
0 1 2 3 4 5 6 7 8 9 10 11 12 13 14 15 16 17 18 19 20 21 22 23
(/) Slide Up  (\) Slide Down  (h) Hammer On  (p) Pull Off  (b) Bend (r) Release (v) Vibrato

Stave 1:

E|--------------------------------------
B|--------------------------------------
G|--------------------------------------
D|-----4-------------------0-----0h2p0--
A|-----------0-----0h2------------------
D|--0-----0-----0-------0-----0------0--

Stave 2:

E|-----------------------------------
B|-----------------------------------
G|-----------------------------------
D|-----4-----2-----4/5-----2--4p2p0--
A|-----------------------------------
D|--0-----0-----0-------0------------

Stave 3:

E|------------------------------------|----------5----------------------|-----------------------------------|----------------------------
B|-----------------5/7-----5--7p5-----|-----3----3--7-----5-----7p5-----|-----------------------------------|----------------------------
G|-----7-----4-----0-------4-------7--|----------4--7-----4----------5--|-----4-----2-----------------------|----------------------------
D|-----7-----0------------------------|-----5p4-------------------------|-----------------4-----2-----0-----|-----4-----0-----0h2-----0--
A|------------------------------------|---------------------------------|-----------------------------------|----------------------------
D|--5-----5-----5--5----5-----5-------|--5-------5--5--5-----5----------|--0-----0-----0-----0-----0-----0--|--0-----0-----0-------0-----

							http://www.guitartabcreator.com
Chords

Instruments
{"strings":[[[".",".",".",".",".",".",".",".",".",".",".",".",".",".",".","."],[".",".",".",".",".",".",".",".",".",".",".",".",".",".",".","."],[".",".",".",".",".",".",".",".",".",".",".",".",".",".",".","."],[".",4,".",".",".",".",".",".",".",0,".",0,"h",2,"p",0],[".",".",".",0,".",0,"h",2,".",".",".",".",".",".",".","."],[0,".",0,".",0,".",".",".",0,".",0,".",".",".",".",0]],[[".",".",".",".",".",".",".",".",".",".",".",".",".",".","."],[".",".",".",".",".",".",".",".",".",".",".",".",".",".","."],[".",".",".",".",".",".",".",".",".",".",".",".",".",".","."],[".",4,".",2,".",4,"/",5,".",2,4,"p",2,"p",0],[".",".",".",".",".",".",".",".",".",".",".",".",".",".","."],[0,".",0,".",0,".",".",".",0,".",".",".",".",".","."]],[[".",".",".",".",".",".",".",".",".",".",".",".",".",".","|",".",".",".",".",5,".",".",".",".",".",".",".",".","|",".",".",".",".",".",".",".",".",".",".",".","|",".",".",".",".",".",".",".",".",".","."],[".",".",".",".",".",5,"/",7,".",5,7,"p",5,".","|",".",3,".",".",3,7,".",5,".",7,"p",5,".","|",".",".",".",".",".",".",".",".",".",".",".","|",".",".",".",".",".",".",".",".",".","."],[".",7,".",4,".",0,".",".",".",4,".",".",".",7,"|",".",".",".",".",4,7,".",4,".",".",".",".",5,"|",".",4,".",2,".",".",".",".",".",".",".","|",".",".",".",".",".",".",".",".",".","."],[".",7,".",0,".",".",".",".",".",".",".",".",".",".","|",".",5,"p",4,".",".",".",".",".",".",".",".",".","|",".",".",".",".",".",4,".",2,".",0,".","|",".",4,".",0,".",0,"h",2,".",0],[".",".",".",".",".",".",".",".",".",".",".",".",".",".","|",".",".",".",".",".",".",".",".",".",".",".",".",".","|",".",".",".",".",".",".",".",".",".",".",".","|",".",".",".",".",".",".",".",".",".","."],[5,".",5,".",5,5,".",".",5,".",5,".",".",".","|",5,".",".",".",5,5,5,".",5,".",".",".",".","|",0,".",0,".",0,".",0,".",0,".",0,"|",0,".",0,".",0,".",".",".",0,"."]]],"numberofstrings":6,"notes":["E","B","G","D","A","D"],"capo":0,"stringnotes":["E3","B2","G2","D2","A1","D1"],"comments":["Stave 1:","Stave 2:","Stave 3:"],"timing":[[null,null,null,null,null,null,null,null,null,null,"W","W",null,"W",null,"W","W"],["W","W","W","W","W","W","W","W","W","W","W",null,"W",null,"W"],["W","W","W","W","W","W",null,"W","W","W","W","W","W","W",null,"W","W",null,"W","W","W","W","W","W","W",null,"W","W",null,"W","W","W","W","W","W","W","W","W","W","W",null,"W","W","W","W","W","W",null,"W","W","W"]],"timingvisible":false,"tabcounter":51,"stave":2,"totalstaves":3,"instrument":"6guitar","selectedtuning":"Drop D","version":"13"}

Member for

1 month 1 week
About Me
i play the guitar
Submitted by lemcgrath77 on Fri, 2021-01-15 16:45